0
SECTION
2
HEADER
9
$EXTMIN
10
0
20
0
30
0
9
$EXTMAX
10
42000.000000
20
29700.000000
30
0
9
$LIMMIN
10
0
20
0
9
$LIMMAX
10
42000.000000
20
29700.000000
9
$INSBASE
10
0
20
0
30
0
9
$LTSCALE
40
100
0
ENDSEC
0
SECTION
2
TABLES
0
TABLE
2
LAYER
70
256
0
LAYER
2
_0-0_
70
0
62
4
6
CONTINUOUS
0
LAYER
2
_0-1_敷地図
70
0
62
3
6
CONTINUOUS
0
LAYER
2
_0-2_道路
70
0
62
7
6
CONTINUOUS
0
LAYER
2
_0-3_三斜
70
0
62
7
6
CONTINUOUS
0
LAYER
2
_0-4_外構
70
0
62
7
6
CONTINUOUS
0
LAYER
2
_0-5_外部部品
70
0
62
7
6
CONTINUOUS
0
LAYER
2
_0-6_隣接建物
70
0
62
7
6
CONTINUOUS
0
LAYER
2
_0-7_点景
70
0
62
7
6
CONTINUOUS
0
LAYER
2
_0-8_敷地雑線
70
0
62
7
6
CONTINUOUS
0
LAYER
2
_0-9_
70
0
62
2
6
CONTINUOUS
0
LAYER
2
_0-A_
70
0
62
4
6
CONTINUOUS
0
LAYER
2
_0-B_記号
70
0
62
7
6
CONTINUOUS
0
LAYER
2
_0-C_ハッチ
70
0
62
4
6
CONTINUOUS
0
LAYER
2
_0-D_寸法
70
0
62
7
6
CONTINUOUS
0
LAYER
2
_0-E_文字
70
0
62
7
6
CONTINUOUS
0
LAYER
2
_0-F_補助線
70
0
62
9
6
CONTINUOUS
0
LAYER
2
_1-0_通芯
70
0
62
4
6
CONTINUOUS
0
LAYER
2
_1-1_外周1階
70
0
62
3
6
CONTINUOUS
0
LAYER
2
_1-2_1階壁芯
70
0
62
7
6
CONTINUOUS
0
LAYER
2
_1-3_外周他
70
0
62
3
6
CONTINUOUS
0
LAYER
2
_1-4_屋根
70
0
62
7
6
CONTINUOUS
0
LAYER
2
_1-5_外周仕上
70
0
62
2
6
CONTINUOUS
0
LAYER
2
_1-6_外部要素
70
0
62
7
6
CONTINUOUS
0
LAYER
2
_1-7_屋根要素
70
0
62
7
6
CONTINUOUS
0
LAYER
2
_1-8_配置雑線
70
0
62
7
6
CONTINUOUS
0
LAYER
2
_1-9_
70
0
62
2
6
CONTINUOUS
0
LAYER
2
_1-A_
70
0
62
4
6
CONTINUOUS
0
LAYER
2
_1-B_記号
70
0
62
7
6
CONTINUOUS
0
LAYER
2
_1-C_ハッチ
70
0
62
4
6
CONTINUOUS
0
LAYER
2
_1-D_寸法
70
0
62
7
6
CONTINUOUS
0
LAYER
2
_1-E_文字
70
0
62
7
6
CONTINUOUS
0
LAYER
2
_1-F_補助線
70
0
62
9
6
CONTINUOUS
0
LAYER
2
_2-0_通芯
70
0
62
7
6
CONTINUOUS
0
LAYER
2
_2-1_壁芯
70
0
62
7
6
CONTINUOUS
0
LAYER
2
_2-2_柱
70
0
62
2
6
CONTINUOUS
0
LAYER
2
_2-3_仕上
70
0
62
7
6
CONTINUOUS
0
LAYER
2
_2-4_雑仕上
70
0
62
7
6
CONTINUOUS
0
LAYER
2
_2-5_建具
70
0
62
3
6
CONTINUOUS
0
LAYER
2
_2-6_設備
70
0
62
7
6
CONTINUOUS
0
LAYER
2
_2-7_家具
70
0
62
4
6
CONTINUOUS
0
LAYER
2
_2-8_雑線
70
0
62
4
6
CONTINUOUS
0
LAYER
2
_2-9_
70
0
62
2
6
CONTINUOUS
0
LAYER
2
_2-A_金物記号
70
0
62
3
6
CONTINUOUS
0
LAYER
2
_2-B_記号
70
0
62
7
6
CONTINUOUS
0
LAYER
2
_2-C_ハッチ
70
0
62
4
6
CONTINUOUS
0
LAYER
2
_2-D_寸法
70
0
62
7
6
CONTINUOUS
0
LAYER
2
_2-E_文字
70
0
62
7
6
CONTINUOUS
0
LAYER
2
_2-F_補助線
70
0
62
9
6
CONTINUOUS
0
LAYER
2
_3-0_通芯
70
0
62
4
6
CONTINUOUS
0
LAYER
2
_3-1_下地線
70
0
62
7
6
CONTINUOUS
0
LAYER
2
_3-2_耐力壁
70
0
62
6
6
CONTINUOUS
0
LAYER
2
_3-3_壁記号
70
0
62
7
6
CONTINUOUS
0
LAYER
2
_3-4_筋かい
70
0
62
2
6
CONTINUOUS
0
LAYER
2
_3-5_筋記号
70
0
62
7
6
CONTINUOUS
0
LAYER
2
_3-6_金物記号
70
0
62
3
6
CONTINUOUS
0
LAYER
2
_3-7_平面外部
70
0
62
7
6
CONTINUOUS
0
LAYER
2
_3-8_屋根伏
70
0
62
7
6
CONTINUOUS
0
LAYER
2
_3-9_重心記号
70
0
62
6
6
CONTINUOUS
0
LAYER
2
_3-A_加算領域
70
0
62
2
6
CONTINUOUS
0
LAYER
2
_3-B_記号
70
0
62
7
6
CONTINUOUS
0
LAYER
2
_3-C_ハッチ
70
0
62
4
6
CONTINUOUS
0
LAYER
2
_3-D_
70
0
62
7
6
CONTINUOUS
0
LAYER
2
_3-E_文字
70
0
62
7
6
CONTINUOUS
0
LAYER
2
_3-F_補助線
70
0
62
9
6
CONTINUOUS
0
LAYER
2
_4-0_立面通芯
70
0
62
4
6
CONTINUOUS
0
LAYER
2
_4-1_立面基準
70
0
62
7
6
CONTINUOUS
0
LAYER
2
_4-2_立面輪郭
70
0
62
3
6
CONTINUOUS
0
LAYER
2
_4-3_立面他
70
0
62
7
6
CONTINUOUS
0
LAYER
2
_4-4_立面雑線
70
0
62
7
6
CONTINUOUS
0
LAYER
2
_4-5_立面建具
70
0
62
3
6
CONTINUOUS
0
LAYER
2
_4-6_立面斜線
70
0
62
7
6
CONTINUOUS
0
LAYER
2
_4-7_
70
0
62
7
6
CONTINUOUS
0
LAYER
2
_4-8_立面GL
70
0
62
6
6
CONTINUOUS
0
LAYER
2
_4-9_
70
0
62
2
6
CONTINUOUS
0
LAYER
2
_4-A_
70
0
62
4
6
CONTINUOUS
0
LAYER
2
_4-B_記号
70
0
62
7
6
CONTINUOUS
0
LAYER
2
_4-C_ハッチ
70
0
62
4
6
CONTINUOUS
0
LAYER
2
_4-D_寸法
70
0
62
7
6
CONTINUOUS
0
LAYER
2
_4-E_文字
70
0
62
7
6
CONTINUOUS
0
LAYER
2
_4-F_補助線
70
0
62
9
6
CONTINUOUS
0
LAYER
2
_5-0_断面通芯
70
0
62
4
6
CONTINUOUS
0
LAYER
2
_5-1_断面基準
70
0
62
7
6
CONTINUOUS
0
LAYER
2
_5-2_断面
70
0
62
2
6
CONTINUOUS
0
LAYER
2
_5-3_外部要素
70
0
62
7
6
CONTINUOUS
0
LAYER
2
_5-4_断面雑線
70
0
62
7
6
CONTINUOUS
0
LAYER
2
_5-5_断面建具
70
0
62
7
6
CONTINUOUS
0
LAYER
2
_5-6_断面斜線
70
0
62
7
6
CONTINUOUS
0
LAYER
2
_5-7_採光斜線
70
0
62
3
6
CONTINUOUS
0
LAYER
2
_5-8_GLライン
70
0
62
6
6
CONTINUOUS
0
LAYER
2
_5-9_壁下地
70
0
62
2
6
CONTINUOUS
0
LAYER
2
_5-A_見える材
70
0
62
4
6
CONTINUOUS
0
LAYER
2
_5-B_記号
70
0
62
7
6
CONTINUOUS
0
LAYER
2
_5-C_ハッチ
70
0
62
4
6
CONTINUOUS
0
LAYER
2
_5-D_寸法
70
0
62
7
6
CONTINUOUS
0
LAYER
2
_5-E_文字
70
0
62
7
6
CONTINUOUS
0
LAYER
2
_5-F_補助線
70
0
62
9
6
CONTINUOUS
0
LAYER
2
_6-0_通芯
70
0
62
4
6
CONTINUOUS
0
LAYER
2
_6-1_壁芯
70
0
62
7
6
CONTINUOUS
0
LAYER
2
_6-2_立上り
70
0
62
2
6
CONTINUOUS
0
LAYER
2
_6-3_底盤
70
0
62
7
6
CONTINUOUS
0
LAYER
2
_6-4_換気口
70
0
62
3
6
CONTINUOUS
0
LAYER
2
_6-5_金物
70
0
62
3
6
CONTINUOUS
0
LAYER
2
_6-6_束
70
0
62
6
6
CONTINUOUS
0
LAYER
2
_6-7_高深基礎
70
0
62
7
6
CONTINUOUS
0
LAYER
2
_6-8_基礎雑線
70
0
62
7
6
CONTINUOUS
0
LAYER
2
_6-9_
70
0
62
7
6
CONTINUOUS
0
LAYER
2
_6-A_
70
0
62
7
6
CONTINUOUS
0
LAYER
2
_6-B_記号
70
0
62
7
6
CONTINUOUS
0
LAYER
2
_6-C_ハッチ
70
0
62
4
6
CONTINUOUS
0
LAYER
2
_6-D_寸法
70
0
62
7
6
CONTINUOUS
0
LAYER
2
_6-E_文字
70
0
62
7
6
CONTINUOUS
0
LAYER
2
_6-F_補助線
70
0
62
9
6
CONTINUOUS
0
LAYER
2
_7-0_土台
70
0
62
3
6
CONTINUOUS
0
LAYER
2
_7-1_火打材
70
0
62
7
6
CONTINUOUS
0
LAYER
2
_7-2_根太
70
0
62
4
6
CONTINUOUS
0
LAYER
2
_7-3_梁桁
70
0
62
3
6
CONTINUOUS
0
LAYER
2
_7-4_枕梁
70
0
62
2
6
CONTINUOUS
0
LAYER
2
_7-5_松丸太
70
0
62
3
6
CONTINUOUS
0
LAYER
2
_7-6_登り梁
70
0
62
3
6
CONTINUOUS
0
LAYER
2
_7-7_その他梁
70
0
62
2
6
CONTINUOUS
0
LAYER
2
_7-8_棟木
70
0
62
3
6
CONTINUOUS
0
LAYER
2
_7-9_母屋
70
0
62
7
6
CONTINUOUS
0
LAYER
2
_7-A_垂木
70
0
62
4
6
CONTINUOUS
0
LAYER
2
_7-B_継ぎ手
70
0
62
2
6
CONTINUOUS
0
LAYER
2
_7-C_小屋束
70
0
62
7
6
CONTINUOUS
0
LAYER
2
_7-D_層柱
70
0
62
7
6
CONTINUOUS
0
LAYER
2
_7-E_下層柱
70
0
62
7
6
CONTINUOUS
0
LAYER
2
_7-F_基準高外
70
0
62
3
6
CONTINUOUS
0
LAYER
2
_8-0_通芯
70
0
62
4
6
CONTINUOUS
0
LAYER
2
_8-1_壁芯
70
0
62
4
6
CONTINUOUS
0
LAYER
2
_8-2_柱
70
0
62
3
6
CONTINUOUS
0
LAYER
2
_8-3_仕上
70
0
62
7
6
CONTINUOUS
0
LAYER
2
_8-4_雑仕上
70
0
62
4
6
CONTINUOUS
0
LAYER
2
_8-5_建具
70
0
62
3
6
CONTINUOUS
0
LAYER
2
_8-6_設備
70
0
62
4
6
CONTINUOUS
0
LAYER
2
_8-7_家具
70
0
62
4
6
CONTINUOUS
0
LAYER
2
_8-8_雑線
70
0
62
4
6
CONTINUOUS
0
LAYER
2
_8-9_
70
0
62
2
6
CONTINUOUS
0
LAYER
2
_8-A_金物記号
70
0
62
3
6
CONTINUOUS
0
LAYER
2
_8-B_記号
70
0
62
7
6
CONTINUOUS
0
LAYER
2
_8-C_ハッチ
70
0
62
4
6
CONTINUOUS
0
LAYER
2
_8-D_寸法
70
0
62
7
6
CONTINUOUS
0
LAYER
2
_8-E_文字
70
0
62
7
6
CONTINUOUS
0
LAYER
2
_8-F_補助線
70
0
62
9
6
CONTINUOUS
0
LAYER
2
_9-0_展開1
70
0
62
7
6
CONTINUOUS
0
LAYER
2
_9-1_展開2
70
0
62
4
6
CONTINUOUS
0
LAYER
2
_9-2_
70
0
62
7
6
CONTINUOUS
0
LAYER
2
_9-3_建具1
70
0
62
7
6
CONTINUOUS
0
LAYER
2
_9-4_建具2
70
0
62
7
6
CONTINUOUS
0
LAYER
2
_9-5_
70
0
62
7
6
CONTINUOUS
0
LAYER
2
_9-6_天井１
70
0
62
7
6
CONTINUOUS
0
LAYER
2
_9-7_天井2
70
0
62
7
6
CONTINUOUS
0
LAYER
2
_9-8_
70
0
62
7
6
CONTINUOUS
0
LAYER
2
_9-9_
70
0
62
7
6
CONTINUOUS
0
LAYER
2
_9-A_
70
0
62
7
6
CONTINUOUS
0
LAYER
2
_9-B_記号
70
0
62
7
6
CONTINUOUS
0
LAYER
2
_9-C_ハッチ
70
0
62
4
6
CONTINUOUS
0
LAYER
2
_9-D_寸法
70
0
62
7
6
CONTINUOUS
0
LAYER
2
_9-E_文字
70
0
62
7
6
CONTINUOUS
0
LAYER
2
_9-F_補助線
70
0
62
9
6
CONTINUOUS
0
LAYER
2
_A-0_
70
0
62
4
6
CONTINUOUS
0
LAYER
2
_A-1_
70
0
62
7
6
CONTINUOUS
0
LAYER
2
_A-2_
70
0
62
3
6
CONTINUOUS
0
LAYER
2
_A-3_
70
0
62
2
6
CONTINUOUS
0
LAYER
2
_A-4_
70
0
62
7
6
CONTINUOUS
0
LAYER
2
_A-5_
70
0
62
3
6
CONTINUOUS
0
LAYER
2
_A-6_
70
0
62
7
6
CONTINUOUS
0
LAYER
2
_A-7_
70
0
62
3
6
CONTINUOUS
0
LAYER
2
_A-8_
70
0
62
7
6
CONTINUOUS
0
LAYER
2
_A-9_
70
0
62
2
6
CONTINUOUS
0
LAYER
2
_A-A_
70
0
62
3
6
CONTINUOUS
0
LAYER
2
_A-B_記号
70
0
62
7
6
CONTINUOUS
0
LAYER
2
_A-C_ハッチ
70
0
62
4
6
CONTINUOUS
0
LAYER
2
_A-D_寸法
70
0
62
7
6
CONTINUOUS
0
LAYER
2
_A-E_文字
70
0
62
7
6
CONTINUOUS
0
LAYER
2
_A-F_補助線
70
0
62
9
6
CONTINUOUS
0
LAYER
2
_B-0_通芯
70
0
62
4
6
CONTINUOUS
0
LAYER
2
_B-1_線
70
0
62
7
6
CONTINUOUS
0
LAYER
2
_B-2_柱束
70
0
62
3
6
CONTINUOUS
0
LAYER
2
_B-3_横架材
70
0
62
3
6
CONTINUOUS
0
LAYER
2
_B-4_基礎
70
0
62
7
6
CONTINUOUS
0
LAYER
2
_B-5_柱壁1
70
0
62
7
6
CONTINUOUS
0
LAYER
2
_B-6_柱壁2
70
0
62
3
6
CONTINUOUS
0
LAYER
2
_B-7_柱壁3
70
0
62
2
6
CONTINUOUS
0
LAYER
2
_B-8_耐力壁
70
0
62
7
6
CONTINUOUS
0
LAYER
2
_B-9_金物1
70
0
62
3
6
CONTINUOUS
0
LAYER
2
_B-A_金物2
70
0
62
3
6
CONTINUOUS
0
LAYER
2
_B-B_記号
70
0
62
7
6
CONTINUOUS
0
LAYER
2
_B-C_ハッチ
70
0
62
4
6
CONTINUOUS
0
LAYER
2
_B-D_寸法
70
0
62
7
6
CONTINUOUS
0
LAYER
2
_B-E_文字
70
0
62
7
6
CONTINUOUS
0
LAYER
2
_B-F_補助線
70
0
62
9
6
CONTINUOUS
0
LAYER
2
_C-0_軸組計算
70
0
62
7
6
CONTINUOUS
0
LAYER
2
_C-1_偏芯率
70
0
62
7
6
CONTINUOUS
0
LAYER
2
_C-2_採光計算
70
0
62
7
6
CONTINUOUS
0
LAYER
2
_C-3_金物計算
70
0
62
7
6
CONTINUOUS
0
LAYER
2
_C-4_ALV
70
0
62
7
6
CONTINUOUS
0
LAYER
2
_C-5_壁量計算
70
0
62
7
6
CONTINUOUS
0
LAYER
2
_C-6_
70
0
62
7
6
CONTINUOUS
0
LAYER
2
_C-7_
70
0
62
7
6
CONTINUOUS
0
LAYER
2
_C-8_
70
0
62
7
6
CONTINUOUS
0
LAYER
2
_C-9_
70
0
62
7
6
CONTINUOUS
0
LAYER
2
_C-A_
70
0
62
7
6
CONTINUOUS
0
LAYER
2
_C-B_
70
0
62
7
6
CONTINUOUS
0
LAYER
2
_C-C_
70
0
62
7
6
CONTINUOUS
0
LAYER
2
_C-D_
70
0
62
7
6
CONTINUOUS
0
LAYER
2
_C-E_文字
70
0
62
7
6
CONTINUOUS
0
LAYER
2
_C-F_補助線
70
0
62
9
6
CONTINUOUS
0
LAYER
2
_D-0_敷地面積
70
0
62
7
6
CONTINUOUS
0
LAYER
2
_D-1_建築面積
70
0
62
7
6
CONTINUOUS
0
LAYER
2
_D-2_床面積
70
0
62
7
6
CONTINUOUS
0
LAYER
2
_D-3_1_4面積
70
0
62
7
6
CONTINUOUS
0
LAYER
2
_D-4_見付面積
70
0
62
7
6
CONTINUOUS
0
LAYER
2
_D-5_採光面積分割
70
0
62
7
6
CONTINUOUS
0
LAYER
2
_D-6_
70
0
62
7
6
CONTINUOUS
0
LAYER
2
_D-7_
70
0
62
7
6
CONTINUOUS
0
LAYER
2
_D-8_敷地表
70
0
62
7
6
CONTINUOUS
0
LAYER
2
_D-9_建築表
70
0
62
7
6
CONTINUOUS
0
LAYER
2
_D-A_床面積表
70
0
62
7
6
CONTINUOUS
0
LAYER
2
_D-B_1_4表
70
0
62
7
6
CONTINUOUS
0
LAYER
2
_D-C_見付表
70
0
62
7
6
CONTINUOUS
0
LAYER
2
_D-D_
70
0
62
7
6
CONTINUOUS
0
LAYER
2
_D-E_文字
70
0
62
7
6
CONTINUOUS
0
LAYER
2
_D-F_補助線
70
0
62
9
6
CONTINUOUS
0
LAYER
2
_E-0_図面枠
70
0
62
7
6
CONTINUOUS
0
LAYER
2
_E-1_敷地凡例
70
0
62
7
6
CONTINUOUS
0
LAYER
2
_E-2_平面凡例
70
0
62
7
6
CONTINUOUS
0
LAYER
2
_E-3_立面凡例
70
0
62
7
6
CONTINUOUS
0
LAYER
2
_E-4_基礎凡例
70
0
62
7
6
CONTINUOUS
0
LAYER
2
_E-5_構造
70
0
62
7
6
CONTINUOUS
0
LAYER
2
_E-6_伏図凡例
70
0
62
7
6
CONTINUOUS
0
LAYER
2
_E-7_電気凡例
70
0
62
7
6
CONTINUOUS
0
LAYER
2
_E-8_給排水凡
70
0
62
7
6
CONTINUOUS
0
LAYER
2
_E-9_ガス
70
0
62
7
6
CONTINUOUS
0
LAYER
2
_E-A_
70
0
62
7
6
CONTINUOUS
0
LAYER
2
_E-B_
70
0
62
7
6
CONTINUOUS
0
LAYER
2
_E-C_
70
0
62
7
6
CONTINUOUS
0
LAYER
2
_E-D_
70
0
62
7
6
CONTINUOUS
0
LAYER
2
_E-E_文字
70
0
62
7
6
CONTINUOUS
0
LAYER
2
_E-F_補助線
70
0
62
9
6
CONTINUOUS
0
LAYER
2
_F-0_
70
0
62
7
6
CONTINUOUS
0
LAYER
2
_F-1_
70
0
62
7
6
CONTINUOUS
0
LAYER
2
_F-2_
70
0
62
7
6
CONTINUOUS
0
LAYER
2
_F-3_
70
0
62
7
6
CONTINUOUS
0
LAYER
2
_F-4_
70
0
62
7
6
CONTINUOUS
0
LAYER
2
_F-5_
70
0
62
7
6
CONTINUOUS
0
LAYER
2
_F-6_
70
0
62
7
6
CONTINUOUS
0
LAYER
2
_F-7_
70
0
62
7
6
CONTINUOUS
0
LAYER
2
_F-8_
70
0
62
7
6
CONTINUOUS
0
LAYER
2
_F-9_
70
0
62
7
6
CONTINUOUS
0
LAYER
2
_F-A_
70
0
62
7
6
CONTINUOUS
0
LAYER
2
_F-B_
70
0
62
7
6
CONTINUOUS
0
LAYER
2
_F-C_
70
0
62
7
6
CONTINUOUS
0
LAYER
2
_F-D_
70
0
62
7
6
CONTINUOUS
0
LAYER
2
_F-E_
70
0
62
7
6
CONTINUOUS
0
LAYER
2
_F-F_
70
0
62
7
6
CONTINUOUS
0
ENDTAB
  0
TABLE
  2
LTYPE
 70
     9
  0
LTYPE
  2
CONTINUOUS
 70
    64
  3
実線
 72
    65
 73
     0
 40
0.0
  0
LTYPE
  2
DASHED1
 70
    64
  3
--  --  --  --  --  --  --  --  
 72
    65
 73
     2
 40
2.5
 49
1.25
 49
-1.25
  0
LTYPE
  2
DASHED2
 70
    64
  3
----    ----    ----    ----    
 72
    65
 73
     2
 40
5.0
 49
2.5
 49
-2.5
  0
LTYPE
  2
DASHED3
 70
    64
  3
------  ------  ------  ------  
 72
    65
 73
     2
 40
5.0
 49
3.75
 49
-1.25
  0
LTYPE
  2
CENTER1
 70
    64
  3
----- - ----- - ----- - ----- - 
 72
    65
 73
     4
 40
10.0
 49
6.25
 49
-1.25
 49
1.25
 49
-1.25
  0
LTYPE
  2
CENTER2
 70
    64
  3
----------  --  ----------  --  
 72
    65
 73
     4
 40
20.0
 49
12.5
 49
-2.5
 49
2.5
 49
-2.5
  0
LTYPE
  2
PHANTOM1
 70
    64
  3
--- - - --- - - --- - - --- - - 
 72
    65
 73
     6
 40
10.0
 49
3.25
49
-1.25
 49
1.25
 49
-1.25
 49
1.25
 49
-1.25
  0
LTYPE
  2
PHANTOM2
 70
    64
  3
--------  -  -  --------  -  -  
 72
    65
 73
     6
 40
20.0
 49
10.0
 49
-2.5
 49
1.25
 49
-2.5
 49
1.25
 49
-2.5
  0
LTYPE
  2
DOT
 70
    64
  3
-   -   -   -   -   -   -   -   
 72
    65
 73
     2
 40
2.5
 49
0.625
 49
-1.875
  0
ENDTAB
  0
TABLE
  2
STYLE
 70
    1
  0
STYLE
  2
STANDARD
 70
    64
 40
0.0
 41
1.0
 42
0.0
 50
0.0
 71
     0
  3
TXT
  4
BIGFONT
  0
ENDTAB
0
ENDSEC
0
SECTION
2
BLOCKS
0
ENDSEC
0
SECTION
2
ENTITIES
0
LINE
8
_2-4_雑仕上
6
CONTINUOUS
62
4
10
6142.500000
20
4622.500000
30
0.000000
11
6142.500000
21
5375.500000
31
0.000000
39
0.000000
0
LINE
8
_2-4_雑仕上
6
CONTINUOUS
62
4
10
5915.000000
20
4622.500000
30
0.000000
11
5915.000000
21
5375.500000
31
0.000000
39
0.000000
0
LINE
8
_2-4_雑仕上
6
CONTINUOUS
62
4
10
5687.500000
20
4622.500000
30
0.000000
11
5687.500000
21
5375.500000
31
0.000000
39
0.000000
0
LINE
8
_2-4_雑仕上
6
CONTINUOUS
62
4
10
5460.000000
20
5387.500000
30
0.000000
11
5460.000000
21
4622.500000
31
0.000000
39
0.000000
0
LINE
8
_2-4_雑仕上
6
CONTINUOUS
62
4
10
5418.142105
20
4622.500000
30
0.000000
11
4976.469150
21
5387.500000
31
0.000000
39
0.000000
0
LINE
8
_2-4_雑仕上
6
CONTINUOUS
62
4
10
5387.500000
20
4591.857895
30
0.000000
11
4622.500000
21
5033.530850
31
0.000000
39
0.000000
0
LINE
8
_2-4_雑仕上
6
CONTINUOUS
62
4
10
5387.500000
20
4550.000000
30
0.000000
11
4622.500000
21
4550.000000
31
0.000000
39
0.000000
0
LINE
8
_2-4_雑仕上
6
CONTINUOUS
62
4
10
5387.500000
20
4246.666667
30
0.000000
11
4622.500000
21
4246.666667
31
0.000000
39
0.000000
0
LINE
8
_2-4_雑仕上
6
CONTINUOUS
62
4
10
5387.500000
20
3943.333333
30
0.000000
11
4622.500000
21
3943.333333
31
0.000000
39
0.000000
0
LINE
8
_2-4_雑仕上
6
CONTINUOUS
62
4
10
6297.500000
20
5005.000000
30
0.000000
11
5460.000000
21
5005.000000
31
0.000000
39
0.000000
0
LINE
8
_2-4_雑仕上
6
CONTINUOUS
62
4
10
5460.000000
20
5005.000000
30
0.000000
11
5005.000000
21
5005.000000
31
0.000000
39
0.000000
0
LINE
8
_2-4_雑仕上
6
CONTINUOUS
62
4
10
5005.000000
20
5005.000000
30
0.000000
11
5005.000000
21
4550.000000
31
0.000000
39
0.000000
0
LINE
8
_2-4_雑仕上
6
CONTINUOUS
62
4
10
5005.000000
20
4550.000000
30
0.000000
11
5005.000000
21
3640.000000
31
0.000000
39
0.000000
0
LINE
8
_2-4_雑仕上
6
CONTINUOUS
62
4
10
6240.000000
20
5005.000000
30
0.000000
11
6040.000000
21
5105.000000
31
0.000000
39
0.000000
0
LINE
8
_2-4_雑仕上
6
CONTINUOUS
62
4
10
6240.000000
20
5005.000000
30
0.000000
11
6040.000000
21
4905.000000
31
0.000000
39
0.000000
0
LINE
8
_3-8_屋根伏
6
CONTINUOUS
62
7
10
9100.000000
20
-455.000000
30
0.000000
11
9100.000000
21
-546.000000
31
0.000000
39
0.000000
0
LINE
8
_3-8_屋根伏
6
CONTINUOUS
62
7
10
9100.000000
20
-546.000000
30
0.000000
11
11193.000000
21
-546.000000
31
0.000000
39
0.000000
0
LINE
8
_3-8_屋根伏
6
CONTINUOUS
62
7
10
11193.000000
20
-546.000000
30
0.000000
11
11193.000000
21
1820.000000
31
0.000000
39
0.000000
0
LINE
8
_3-8_屋根伏
6
CONTINUOUS
62
7
10
11193.000000
20
1820.000000
30
0.000000
11
9190.000000
21
1820.000000
31
0.000000
39
0.000000
0
LINE
8
_3-8_屋根伏
6
CONTINUOUS
62
7
10
11193.000000
20
1820.000000
30
0.000000
11
11193.000000
21
4049.000000
31
0.000000
39
0.000000
0
LINE
8
_3-8_屋根伏
6
CONTINUOUS
62
7
10
11193.000000
20
4049.000000
30
0.000000
11
9190.000000
21
4049.000000
31
0.000000
39
0.000000
0
LINE
8
_3-8_屋根伏
6
CONTINUOUS
62
7
10
9190.000000
20
1820.000000
30
0.000000
11
11193.000000
21
1820.000000
31
0.000000
39
0.000000
0
LINE
8
_3-8_屋根伏
6
CONTINUOUS
62
7
10
-455.000000
20
6825.000000
30
0.000000
11
-455.000000
21
3185.000000
31
0.000000
39
0.000000
0
LINE
8
_3-8_屋根伏
6
CONTINUOUS
62
7
10
-455.000000
20
3185.000000
30
0.000000
11
1705.000000
21
3185.000000
31
0.000000
39
0.000000
0
LINE
8
_3-8_屋根伏
6
CONTINUOUS
62
7
10
9190.000000
20
5460.000000
30
0.000000
11
9555.000000
21
5460.000000
31
0.000000
39
0.000000
0
LINE
8
_3-8_屋根伏
6
CONTINUOUS
62
7
10
9555.000000
20
5460.000000
30
0.000000
11
9555.000000
21
7735.000000
31
0.000000
39
0.000000
0
LINE
8
_3-8_屋根伏
6
CONTINUOUS
62
7
10
9555.000000
20
7735.000000
30
0.000000
11
2275.000000
21
7735.000000
31
0.000000
39
0.000000
0
LINE
8
_3-8_屋根伏
6
CONTINUOUS
62
7
10
2275.000000
20
7735.000000
30
0.000000
11
2275.000000
21
6825.000000
31
0.000000
39
0.000000
0
LINE
8
_3-8_屋根伏
6
CONTINUOUS
62
7
10
2275.000000
20
6825.000000
30
0.000000
11
-455.000000
21
6825.000000
31
0.000000
39
0.000000
0
LINE
8
_3-8_屋根伏
6
CONTINUOUS
62
7
10
-455.000000
20
-546.000000
30
0.000000
11
1820.000000
21
-546.000000
31
0.000000
39
0.000000
0
LINE
8
_3-8_屋根伏
6
CONTINUOUS
62
7
10
1820.000000
20
-546.000000
30
0.000000
11
1820.000000
21
-455.000000
31
0.000000
39
0.000000
0
LINE
8
_3-8_屋根伏
6
CONTINUOUS
62
7
10
1705.000000
20
3185.000000
30
0.000000
11
-455.000000
21
3185.000000
31
0.000000
39
0.000000
0
LINE
8
_3-8_屋根伏
6
CONTINUOUS
62
7
10
-455.000000
20
3185.000000
30
0.000000
11
-455.000000
21
-546.000000
31
0.000000
39
0.000000
0
LINE
8
_2-4_雑仕上
6
CONTINUOUS
62
7
10
1710.000000
20
-565.000000
30
0.000000
11
9210.000000
21
-565.000000
31
0.000000
39
0.000000
0
LINE
8
_2-4_雑仕上
6
CONTINUOUS
62
7
10
9210.000000
20
-565.000000
30
0.000000
11
9210.000000
21
820.000000
31
0.000000
39
0.000000
0
LINE
8
_2-4_雑仕上
6
CONTINUOUS
62
7
10
9210.000000
20
820.000000
30
0.000000
11
9190.000000
21
820.000000
31
0.000000
39
0.000000
0
LINE
8
_2-4_雑仕上
6
CONTINUOUS
62
7
10
9020.000000
20
820.000000
30
0.000000
11
9020.000000
21
-375.000000
31
0.000000
39
0.000000
0
LINE
8
_2-4_雑仕上
6
CONTINUOUS
62
7
10
9020.000000
20
-375.000000
30
0.000000
11
1900.000000
21
-375.000000
31
0.000000
39
0.000000
0
LINE
8
_2-4_雑仕上
6
CONTINUOUS
62
7
10
1900.000000
20
-375.000000
30
0.000000
11
1900.000000
21
820.000000
31
0.000000
39
0.000000
0
LINE
8
_2-4_雑仕上
6
CONTINUOUS
62
7
10
1730.000000
20
820.000000
30
0.000000
11
1710.000000
21
820.000000
31
0.000000
39
0.000000
0
LINE
8
_2-4_雑仕上
6
CONTINUOUS
62
7
10
1710.000000
20
820.000000
30
0.000000
11
1710.000000
21
-565.000000
31
0.000000
39
0.000000
0
LINE
8
_2-4_雑仕上
6
CONTINUOUS
62
7
10
5387.500000
20
3640.000000
30
0.000000
11
4622.500000
21
3640.000000
31
0.000000
39
0.000000
0
LINE
8
_2-4_雑仕上
6
CONTINUOUS
62
7
10
5387.500000
20
3640.000000
30
0.000000
11
4622.500000
21
3640.000000
31
0.000000
39
0.000000
0
LINE
8
_2-3_仕上
6
CONTINUOUS
62
7
10
6442.500000
20
5387.500000
30
0.000000
11
6442.500000
21
4634.500000
31
0.000000
39
0.000000
0
LINE
8
_2-3_仕上
6
CONTINUOUS
62
7
10
6297.500000
20
5375.500000
30
0.000000
11
6297.500000
21
4622.500000
31
0.000000
39
0.000000
0
LINE
8
_2-3_仕上
6
CONTINUOUS
62
7
10
5387.500000
20
3640.000000
30
0.000000
11
5387.500000
21
4622.500000
31
0.000000
39
0.000000
0
LINE
8
_2-3_仕上
6
CONTINUOUS
62
7
10
5532.500000
20
3640.000000
30
0.000000
11
5532.500000
21
4477.500000
31
0.000000
39
0.000000
0
LINE
8
_2-3_仕上
6
CONTINUOUS
62
7
10
9190.000000
20
4550.000000
30
0.000000
11
9190.000000
21
3580.000000
31
0.000000
39
0.000000
0
LINE
8
_2-3_仕上
6
CONTINUOUS
62
7
10
9190.000000
20
1880.000000
30
0.000000
11
9190.000000
21
820.000000
31
0.000000
39
0.000000
0
LINE
8
_2-3_仕上
6
CONTINUOUS
62
7
10
9027.500000
20
4465.500000
30
0.000000
11
9027.500000
21
3580.000000
31
0.000000
39
0.000000
0
LINE
8
_2-3_仕上
6
CONTINUOUS
62
7
10
9027.500000
20
1880.000000
30
0.000000
11
9027.500000
21
982.500000
31
0.000000
39
0.000000
0
LINE
8
_2-3_仕上
6
CONTINUOUS
62
7
10
9190.000000
20
820.000000
30
0.000000
11
8130.000000
21
820.000000
31
0.000000
39
0.000000
0
LINE
8
_2-3_仕上
6
CONTINUOUS
62
7
10
6430.000000
20
820.000000
30
0.000000
11
6370.000000
21
820.000000
31
0.000000
39
0.000000
0
LINE
8
_2-3_仕上
6
CONTINUOUS
62
7
10
9027.500000
20
982.500000
30
0.000000
11
8130.000000
21
982.500000
31
0.000000
39
0.000000
0
LINE
8
_2-3_仕上
6
CONTINUOUS
62
7
10
6430.000000
20
982.500000
30
0.000000
11
6370.000000
21
982.500000
31
0.000000
39
0.000000
0
LINE
8
_2-3_仕上
6
CONTINUOUS
62
7
10
6370.000000
20
4477.500000
30
0.000000
11
6442.500000
21
4477.500000
31
0.000000
39
0.000000
0
LINE
8
_2-3_仕上
6
CONTINUOUS
62
7
10
6370.000000
20
5550.000000
30
0.000000
11
9190.000000
21
5550.000000
31
0.000000
39
0.000000
0
LINE
8
_2-3_仕上
6
CONTINUOUS
62
7
10
6442.500000
20
5387.500000
30
0.000000
11
9027.500000
21
5387.500000
31
0.000000
39
0.000000
0
LINE
8
_2-3_仕上
6
CONTINUOUS
62
7
10
9190.000000
20
5550.000000
30
0.000000
11
9190.000000
21
4550.000000
31
0.000000
39
0.000000
0
LINE
8
_2-3_仕上
6
CONTINUOUS
62
7
10
9027.500000
20
5387.500000
30
0.000000
11
9027.500000
21
4634.500000
31
0.000000
39
0.000000
0
LINE
8
_2-3_仕上
6
CONTINUOUS
62
7
10
6370.000000
20
820.000000
30
0.000000
11
5460.000000
21
820.000000
31
0.000000
39
0.000000
0
LINE
8
_2-3_仕上
6
CONTINUOUS
62
7
10
6370.000000
20
982.500000
30
0.000000
11
5544.500000
21
982.500000
31
0.000000
39
0.000000
0
LINE
8
_2-3_仕上
6
CONTINUOUS
62
7
10
5387.500000
20
4622.500000
30
0.000000
11
6297.500000
21
4622.500000
31
0.000000
39
0.000000
0
LINE
8
_2-3_仕上
6
CONTINUOUS
62
7
10
5532.500000
20
4477.500000
30
0.000000
11
6370.000000
21
4477.500000
31
0.000000
39
0.000000
0
LINE
8
_2-3_仕上
6
CONTINUOUS
62
7
10
1730.000000
20
5550.000000
30
0.000000
11
2730.000000
21
5550.000000
31
0.000000
39
0.000000
0
LINE
8
_2-3_仕上
6
CONTINUOUS
62
7
10
1892.500000
20
5387.500000
30
0.000000
11
2730.000000
21
5387.500000
31
0.000000
39
0.000000
0
LINE
8
_2-3_仕上
6
CONTINUOUS
62
7
10
1892.500000
20
982.500000
30
0.000000
11
2730.000000
21
982.500000
31
0.000000
39
0.000000
0
LINE
8
_2-3_仕上
6
CONTINUOUS
62
7
10
1730.000000
20
820.000000
30
0.000000
11
2730.000000
21
820.000000
31
0.000000
39
0.000000
0
LINE
8
_2-3_仕上
6
CONTINUOUS
62
7
10
2730.000000
20
982.500000
30
0.000000
11
2790.000000
21
982.500000
31
0.000000
39
0.000000
0
LINE
8
_2-3_仕上
6
CONTINUOUS
62
7
10
2730.000000
20
820.000000
30
0.000000
11
2790.000000
21
820.000000
31
0.000000
39
0.000000
0
LINE
8
_2-3_仕上
6
CONTINUOUS
62
7
10
1892.500000
20
5387.500000
30
0.000000
11
1892.500000
21
4634.500000
31
0.000000
39
0.000000
0
LINE
8
_2-3_仕上
6
CONTINUOUS
62
7
10
1730.000000
20
5550.000000
30
0.000000
11
1730.000000
21
4550.000000
31
0.000000
39
0.000000
0
LINE
8
_2-3_仕上
6
CONTINUOUS
62
7
10
1892.500000
20
4465.500000
30
0.000000
11
1892.500000
21
3580.000000
31
0.000000
39
0.000000
0
LINE
8
_2-3_仕上
6
CONTINUOUS
62
7
10
1892.500000
20
1880.000000
30
0.000000
11
1892.500000
21
982.500000
31
0.000000
39
0.000000
0
LINE
8
_2-3_仕上
6
CONTINUOUS
62
7
10
1730.000000
20
4550.000000
30
0.000000
11
1730.000000
21
3580.000000
31
0.000000
39
0.000000
0
LINE
8
_2-3_仕上
6
CONTINUOUS
62
7
10
1730.000000
20
1880.000000
30
0.000000
11
1730.000000
21
820.000000
31
0.000000
39
0.000000
0
LINE
8
_2-3_仕上
6
CONTINUOUS
62
7
10
5460.000000
20
820.000000
30
0.000000
11
4550.000000
21
820.000000
31
0.000000
39
0.000000
0
LINE
8
_2-3_仕上
6
CONTINUOUS
62
7
10
5375.500000
20
982.500000
30
0.000000
11
4622.500000
21
982.500000
31
0.000000
39
0.000000
0
LINE
8
_2-3_仕上
6
CONTINUOUS
62
7
10
4550.000000
20
820.000000
30
0.000000
11
4490.000000
21
820.000000
31
0.000000
39
0.000000
0
LINE
8
_2-3_仕上
6
CONTINUOUS
62
7
10
5532.500000
20
2202.500000
30
0.000000
11
5532.500000
21
2275.000000
31
0.000000
39
0.000000
0
LINE
8
_2-3_仕上
6
CONTINUOUS
62
7
10
5387.500000
20
3125.000000
30
0.000000
11
5387.500000
21
3640.000000
31
0.000000
39
0.000000
0
LINE
8
_2-3_仕上
6
CONTINUOUS
62
7
10
5532.500000
20
2275.000000
30
0.000000
11
5532.500000
21
2347.500000
31
0.000000
39
0.000000
0
LINE
8
_2-3_仕上
6
CONTINUOUS
62
7
10
5532.500000
20
3125.000000
30
0.000000
11
5532.500000
21
3640.000000
31
0.000000
39
0.000000
0
LINE
8
_2-3_仕上
6
CONTINUOUS
62
7
10
4622.500000
20
4550.000000
30
0.000000
11
4622.500000
21
3125.000000
31
0.000000
39
0.000000
0
LINE
8
_2-3_仕上
6
CONTINUOUS
62
7
10
4477.500000
20
4465.500000
30
0.000000
11
4477.500000
21
3885.000000
31
0.000000
39
0.000000
0
LINE
8
_2-3_仕上
6
CONTINUOUS
62
7
10
4477.500000
20
2347.500000
30
0.000000
11
4477.500000
21
2275.000000
31
0.000000
39
0.000000
0
LINE
8
_2-3_仕上
6
CONTINUOUS
62
7
10
4622.500000
20
2202.500000
30
0.000000
11
4622.500000
21
982.500000
31
0.000000
39
0.000000
0
LINE
8
_2-3_仕上
6
CONTINUOUS
62
7
10
4477.500000
20
2275.000000
30
0.000000
11
4477.500000
21
994.500000
31
0.000000
39
0.000000
0
LINE
8
_2-3_仕上
6
CONTINUOUS
62
7
10
4634.500000
20
2347.500000
30
0.000000
11
5375.500000
21
2347.500000
31
0.000000
39
0.000000
0
LINE
8
_2-3_仕上
6
CONTINUOUS
62
7
10
4622.500000
20
2202.500000
30
0.000000
11
5375.500000
21
2202.500000
31
0.000000
39
0.000000
0
LINE
8
_2-3_仕上
6
CONTINUOUS
62
7
10
2730.000000
20
5550.000000
30
0.000000
11
4550.000000
21
5550.000000
31
0.000000
39
0.000000
0
LINE
8
_2-3_仕上
6
CONTINUOUS
62
7
10
2730.000000
20
5387.500000
30
0.000000
11
4477.500000
21
5387.500000
31
0.000000
39
0.000000
0
LINE
8
_2-3_仕上
6
CONTINUOUS
62
7
10
4550.000000
20
5550.000000
30
0.000000
11
5520.000000
21
5550.000000
31
0.000000
39
0.000000
0
LINE
8
_2-3_仕上
6
CONTINUOUS
62
7
10
6310.000000
20
5550.000000
30
0.000000
11
6370.000000
21
5550.000000
31
0.000000
39
0.000000
0
LINE
8
_2-3_仕上
6
CONTINUOUS
62
7
10
4622.500000
20
5387.500000
30
0.000000
11
5520.000000
21
5387.500000
31
0.000000
39
0.000000
0
LINE
8
_2-3_仕上
6
CONTINUOUS
62
7
10
4622.500000
20
5387.500000
30
0.000000
11
4622.500000
21
4550.000000
31
0.000000
39
0.000000
0
LINE
8
_2-3_仕上
6
CONTINUOUS
62
7
10
4477.500000
20
5387.500000
30
0.000000
11
4477.500000
21
4634.500000
31
0.000000
39
0.000000
0
LINE
8
_2-5_建具
6
CONTINUOUS
62
3
10
6450.000000
20
850.000000
30
0.000000
11
6450.000000
21
745.000000
31
0.000000
39
0.000000
0
LINE
8
_2-5_建具
6
CONTINUOUS
62
3
10
6450.000000
20
745.000000
30
0.000000
11
6435.000000
21
745.000000
31
0.000000
39
0.000000
0
LINE
8
_2-5_建具
6
CONTINUOUS
62
3
10
6435.000000
20
745.000000
30
0.000000
11
6435.000000
21
780.000000
31
0.000000
39
0.000000
0
LINE
8
_2-5_建具
6
CONTINUOUS
62
3
10
6435.000000
20
780.000000
30
0.000000
11
6450.000000
21
780.000000
31
0.000000
39
0.000000
0
LINE
8
_2-5_建具
6
CONTINUOUS
62
3
10
8110.000000
20
745.000000
30
0.000000
11
8110.000000
21
695.000000
31
0.000000
39
0.000000
0
LINE
8
_2-5_建具
6
CONTINUOUS
62
3
10
8110.000000
20
695.000000
30
0.000000
11
9010.000000
21
695.000000
31
0.000000
39
0.000000
0
LINE
8
_2-5_建具
6
CONTINUOUS
62
3
10
9010.000000
20
695.000000
30
0.000000
11
9010.000000
21
780.000000
31
0.000000
39
0.000000
0
LINE
8
_2-5_建具
6
CONTINUOUS
62
3
10
9010.000000
20
780.000000
30
0.000000
11
8110.000000
21
780.000000
31
0.000000
39
0.000000
0
LINE
8
_2-5_建具
6
CONTINUOUS
62
3
10
8110.000000
20
780.000000
30
0.000000
11
8110.000000
21
850.000000
31
0.000000
39
0.000000
0
LINE
8
_2-5_建具
6
CONTINUOUS
62
3
10
6450.000000
20
745.000000
30
0.000000
11
8110.000000
21
745.000000
31
0.000000
39
0.000000
0
LINE
8
_2-5_建具
6
CONTINUOUS
62
2
10
6450.000000
20
855.000000
30
0.000000
11
6495.000000
21
855.000000
31
0.000000
39
0.000000
0
LINE
8
_2-5_建具
6
CONTINUOUS
62
2
10
6450.000000
20
835.000000
30
0.000000
11
6450.000000
21
855.000000
31
0.000000
39
0.000000
0
LINE
8
_2-5_建具
6
CONTINUOUS
62
2
10
6495.000000
20
835.000000
30
0.000000
11
6450.000000
21
835.000000
31
0.000000
39
0.000000
0
LINE
8
_2-5_建具
6
CONTINUOUS
62
2
10
6495.000000
20
855.000000
30
0.000000
11
6495.000000
21
835.000000
31
0.000000
39
0.000000
0
LINE
8
_2-5_建具
6
CONTINUOUS
62
2
10
7257.500000
20
855.000000
30
0.000000
11
7302.500000
21
855.000000
31
0.000000
39
0.000000
0
LINE
8
_2-5_建具
6
CONTINUOUS
62
2
10
7257.500000
20
835.000000
30
0.000000
11
7257.500000
21
855.000000
31
0.000000
39
0.000000
0
LINE
8
_2-5_建具
6
CONTINUOUS
62
2
10
7302.500000
20
835.000000
30
0.000000
11
7257.500000
21
835.000000
31
0.000000
39
0.000000
0
LINE
8
_2-5_建具
6
CONTINUOUS
62
2
10
7302.500000
20
855.000000
30
0.000000
11
7302.500000
21
835.000000
31
0.000000
39
0.000000
0
LINE
8
_2-5_建具
6
CONTINUOUS
62
2
10
7257.500000
20
805.000000
30
0.000000
11
7257.500000
21
825.000000
31
0.000000
39
0.000000
0
LINE
8
_2-5_建具
6
CONTINUOUS
62
2
10
7302.500000
20
805.000000
30
0.000000
11
7257.500000
21
805.000000
31
0.000000
39
0.000000
0
LINE
8
_2-5_建具
6
CONTINUOUS
62
2
10
7302.500000
20
825.000000
30
0.000000
11
7302.500000
21
805.000000
31
0.000000
39
0.000000
0
LINE
8
_2-5_建具
6
CONTINUOUS
62
2
10
7257.500000
20
825.000000
30
0.000000
11
7302.500000
21
825.000000
31
0.000000
39
0.000000
0
LINE
8
_2-5_建具
6
CONTINUOUS
62
2
10
8065.000000
20
825.000000
30
0.000000
11
8110.000000
21
825.000000
31
0.000000
39
0.000000
0
LINE
8
_2-5_建具
6
CONTINUOUS
62
2
10
8065.000000
20
805.000000
30
0.000000
11
8065.000000
21
825.000000
31
0.000000
39
0.000000
0
LINE
8
_2-5_建具
6
CONTINUOUS
62
2
10
8110.000000
20
825.000000
30
0.000000
11
8110.000000
21
805.000000
31
0.000000
39
0.000000
0
LINE
8
_2-5_建具
6
CONTINUOUS
62
2
10
8110.000000
20
805.000000
30
0.000000
11
8065.000000
21
805.000000
31
0.000000
39
0.000000
0
LINE
8
_2-5_建具
6
CONTINUOUS
62
3
10
8110.000000
20
850.000000
30
0.000000
11
8110.000000
21
865.000000
31
0.000000
39
0.000000
0
LINE
8
_2-5_建具
6
CONTINUOUS
62
3
10
7302.500000
20
815.000000
30
0.000000
11
8065.000000
21
815.000000
31
0.000000
39
0.000000
0
LINE
8
_2-5_建具
6
CONTINUOUS
62
3
10
6495.000000
20
845.000000
30
0.000000
11
7257.500000
21
845.000000
31
0.000000
39
0.000000
0
LINE
8
_2-5_建具
6
CONTINUOUS
62
7
10
8110.000000
20
795.000000
30
0.000000
11
6450.000000
21
795.000000
31
0.000000
39
0.000000
0
LINE
8
_2-5_建具
6
CONTINUOUS
62
7
10
8110.000000
20
865.000000
30
0.000000
11
6450.000000
21
865.000000
31
0.000000
39
0.000000
0
LINE
8
_2-5_建具
6
CONTINUOUS
62
3
10
8130.000000
20
795.000000
30
0.000000
11
8130.000000
21
850.000000
31
0.000000
39
0.000000
0
LINE
8
_2-5_建具
6
CONTINUOUS
62
3
10
8130.000000
20
795.000000
30
0.000000
11
8110.000000
21
795.000000
31
0.000000
39
0.000000
0
LINE
8
_2-5_建具
6
CONTINUOUS
62
3
10
8130.000000
20
865.000000
30
0.000000
11
8110.000000
21
865.000000
31
0.000000
39
0.000000
0
LINE
8
_2-5_建具
6
CONTINUOUS
62
3
10
8130.000000
20
970.000000
30
0.000000
11
8130.000000
21
994.500000
31
0.000000
39
0.000000
0
LINE
8
_2-5_建具
6
CONTINUOUS
62
3
10
8130.000000
20
994.500000
30
0.000000
11
8110.000000
21
994.500000
31
0.000000
39
0.000000
0
LINE
8
_2-5_建具
6
CONTINUOUS
62
3
10
8110.000000
20
994.500000
30
0.000000
11
8110.000000
21
865.000000
31
0.000000
39
0.000000
0
LINE
8
_2-5_建具
6
CONTINUOUS
62
3
10
6450.000000
20
865.000000
30
0.000000
11
6450.000000
21
850.000000
31
0.000000
39
0.000000
0
LINE
8
_2-5_建具
6
CONTINUOUS
62
3
10
6430.000000
20
795.000000
30
0.000000
11
6430.000000
21
850.000000
31
0.000000
39
0.000000
0
LINE
8
_2-5_建具
6
CONTINUOUS
62
3
10
6430.000000
20
795.000000
30
0.000000
11
6450.000000
21
795.000000
31
0.000000
39
0.000000
0
LINE
8
_2-5_建具
6
CONTINUOUS
62
3
10
6430.000000
20
865.000000
30
0.000000
11
6450.000000
21
865.000000
31
0.000000
39
0.000000
0
LINE
8
_2-5_建具
6
CONTINUOUS
62
3
10
6430.000000
20
970.000000
30
0.000000
11
6430.000000
21
994.500000
31
0.000000
39
0.000000
0
LINE
8
_2-5_建具
6
CONTINUOUS
62
3
10
6430.000000
20
994.500000
30
0.000000
11
6450.000000
21
994.500000
31
0.000000
39
0.000000
0
LINE
8
_2-5_建具
6
CONTINUOUS
62
3
10
6450.000000
20
994.500000
30
0.000000
11
6450.000000
21
865.000000
31
0.000000
39
0.000000
0
LINE
8
_2-5_建具
6
CONTINUOUS
62
7
10
6450.000000
20
994.500000
30
0.000000
11
8110.000000
21
994.500000
31
0.000000
39
0.000000
0
LINE
8
_2-5_建具
6
CONTINUOUS
62
7
10
7280.000000
20
530.000000
30
0.000000
11
7280.000000
21
1130.000000
31
0.000000
39
0.000000
0
LINE
8
_2-5_建具
6
CONTINUOUS
62
7
10
7280.000000
20
530.000000
30
0.000000
11
7340.000000
21
650.000000
31
0.000000
39
0.000000
0
LINE
8
_2-5_建具
6
CONTINUOUS
62
7
10
7280.000000
20
1130.000000
30
0.000000
11
7220.000000
21
1010.000000
31
0.000000
39
0.000000
0
LINE
8
_2-5_建具
6
CONTINUOUS
62
2
10
6290.000000
20
5515.000000
30
0.000000
11
6245.000000
21
5515.000000
31
0.000000
39
0.000000
0
LINE
8
_2-5_建具
6
CONTINUOUS
62
2
10
6290.000000
20
5535.000000
30
0.000000
11
6290.000000
21
5515.000000
31
0.000000
39
0.000000
0
LINE
8
_2-5_建具
6
CONTINUOUS
62
2
10
6245.000000
20
5535.000000
30
0.000000
11
6290.000000
21
5535.000000
31
0.000000
39
0.000000
0
LINE
8
_2-5_建具
6
CONTINUOUS
62
2
10
6245.000000
20
5515.000000
30
0.000000
11
6245.000000
21
5535.000000
31
0.000000
39
0.000000
0
LINE
8
_2-5_建具
6
CONTINUOUS
62
2
10
5937.500000
20
5515.000000
30
0.000000
11
5892.500000
21
5515.000000
31
0.000000
39
0.000000
0
LINE
8
_2-5_建具
6
CONTINUOUS
62
2
10
5937.500000
20
5535.000000
30
0.000000
11
5937.500000
21
5515.000000
31
0.000000
39
0.000000
0
LINE
8
_2-5_建具
6
CONTINUOUS
62
2
10
5892.500000
20
5535.000000
30
0.000000
11
5937.500000
21
5535.000000
31
0.000000
39
0.000000
0
LINE
8
_2-5_建具
6
CONTINUOUS
62
2
10
5892.500000
20
5515.000000
30
0.000000
11
5892.500000
21
5535.000000
31
0.000000
39
0.000000
0
LINE
8
_2-5_建具
6
CONTINUOUS
62
2
10
5937.500000
20
5565.000000
30
0.000000
11
5937.500000
21
5545.000000
31
0.000000
39
0.000000
0
LINE
8
_2-5_建具
6
CONTINUOUS
62
2
10
5892.500000
20
5565.000000
30
0.000000
11
5937.500000
21
5565.000000
31
0.000000
39
0.000000
0
LINE
8
_2-5_建具
6
CONTINUOUS
62
2
10
5892.500000
20
5545.000000
30
0.000000
11
5892.500000
21
5565.000000
31
0.000000
39
0.000000
0
LINE
8
_2-5_建具
6
CONTINUOUS
62
2
10
5937.500000
20
5545.000000
30
0.000000
11
5892.500000
21
5545.000000
31
0.000000
39
0.000000
0
LINE
8
_2-5_建具
6
CONTINUOUS
62
2
10
5585.000000
20
5545.000000
30
0.000000
11
5540.000000
21
5545.000000
31
0.000000
39
0.000000
0
LINE
8
_2-5_建具
6
CONTINUOUS
62
2
10
5585.000000
20
5565.000000
30
0.000000
11
5585.000000
21
5545.000000
31
0.000000
39
0.000000
0
LINE
8
_2-5_建具
6
CONTINUOUS
62
2
10
5540.000000
20
5545.000000
30
0.000000
11
5540.000000
21
5565.000000
31
0.000000
39
0.000000
0
LINE
8
_2-5_建具
6
CONTINUOUS
62
2
10
5540.000000
20
5565.000000
30
0.000000
11
5585.000000
21
5565.000000
31
0.000000
39
0.000000
0
LINE
8
_2-5_建具
6
CONTINUOUS
62
3
10
5540.000000
20
5575.000000
30
0.000000
11
5540.000000
21
5505.000000
31
0.000000
39
0.000000
0
LINE
8
_2-5_建具
6
CONTINUOUS
62
3
10
5892.500000
20
5555.000000
30
0.000000
11
5585.000000
21
5555.000000
31
0.000000
39
0.000000
0
LINE
8
_2-5_建具
6
CONTINUOUS
62
3
10
6245.000000
20
5525.000000
30
0.000000
11
5937.500000
21
5525.000000
31
0.000000
39
0.000000
0
LINE
8
_2-5_建具
6
CONTINUOUS
62
7
10
5540.000000
20
5575.000000
30
0.000000
11
6290.000000
21
5575.000000
31
0.000000
39
0.000000
0
LINE
8
_2-5_建具
6
CONTINUOUS
62
7
10
5540.000000
20
5505.000000
30
0.000000
11
6290.000000
21
5505.000000
31
0.000000
39
0.000000
0
LINE
8
_2-5_建具
6
CONTINUOUS
62
3
10
5520.000000
20
5575.000000
30
0.000000
11
5520.000000
21
5520.000000
31
0.000000
39
0.000000
0
LINE
8
_2-5_建具
6
CONTINUOUS
62
3
10
5520.000000
20
5575.000000
30
0.000000
11
5540.000000
21
5575.000000
31
0.000000
39
0.000000
0
LINE
8
_2-5_建具
6
CONTINUOUS
62
3
10
5520.000000
20
5505.000000
30
0.000000
11
5540.000000
21
5505.000000
31
0.000000
39
0.000000
0
LINE
8
_2-5_建具
6
CONTINUOUS
62
3
10
5520.000000
20
5400.000000
30
0.000000
11
5520.000000
21
5375.500000
31
0.000000
39
0.000000
0
LINE
8
_2-5_建具
6
CONTINUOUS
62
3
10
5520.000000
20
5375.500000
30
0.000000
11
5540.000000
21
5375.500000
31
0.000000
39
0.000000
0
LINE
8
_2-5_建具
6
CONTINUOUS
62
3
10
5540.000000
20
5375.500000
30
0.000000
11
5540.000000
21
5505.000000
31
0.000000
39
0.000000
0
LINE
8
_2-5_建具
6
CONTINUOUS
62
3
10
6290.000000
20
5575.000000
30
0.000000
11
6290.000000
21
5505.000000
31
0.000000
39
0.000000
0
LINE
8
_2-5_建具
6
CONTINUOUS
62
3
10
6310.000000
20
5575.000000
30
0.000000
11
6310.000000
21
5520.000000
31
0.000000
39
0.000000
0
LINE
8
_2-5_建具
6
CONTINUOUS
62
3
10
6310.000000
20
5575.000000
30
0.000000
11
6290.000000
21
5575.000000
31
0.000000
39
0.000000
0
LINE
8
_2-5_建具
6
CONTINUOUS
62
3
10
6310.000000
20
5505.000000
30
0.000000
11
6290.000000
21
5505.000000
31
0.000000
39
0.000000
0
LINE
8
_2-5_建具
6
CONTINUOUS
62
3
10
6310.000000
20
5400.000000
30
0.000000
11
6310.000000
21
5375.500000
31
0.000000
39
0.000000
0
LINE
8
_2-5_建具
6
CONTINUOUS
62
3
10
6310.000000
20
5375.500000
30
0.000000
11
6290.000000
21
5375.500000
31
0.000000
39
0.000000
0
LINE
8
_2-5_建具
6
CONTINUOUS
62
3
10
6290.000000
20
5375.500000
30
0.000000
11
6290.000000
21
5505.000000
31
0.000000
39
0.000000
0
LINE
8
_2-5_建具
6
CONTINUOUS
62
7
10
6290.000000
20
5375.500000
30
0.000000
11
5540.000000
21
5375.500000
31
0.000000
39
0.000000
0
LINE
8
_2-5_建具
6
CONTINUOUS
62
7
10
5915.000000
20
5240.000000
30
0.000000
11
5915.000000
21
5840.000000
31
0.000000
39
0.000000
0
LINE
8
_2-5_建具
6
CONTINUOUS
62
7
10
5915.000000
20
5240.000000
30
0.000000
11
5975.000000
21
5360.000000
31
0.000000
39
0.000000
0
LINE
8
_2-5_建具
6
CONTINUOUS
62
7
10
5915.000000
20
5840.000000
30
0.000000
11
5855.000000
21
5720.000000
31
0.000000
39
0.000000
0
LINE
8
_2-5_建具
6
CONTINUOUS
62
2
10
9155.000000
20
1900.000000
30
0.000000
11
9155.000000
21
1945.000000
31
0.000000
39
0.000000
0
LINE
8
_2-5_建具
6
CONTINUOUS
62
2
10
9175.000000
20
1900.000000
30
0.000000
11
9155.000000
21
1900.000000
31
0.000000
39
0.000000
0
LINE
8
_2-5_建具
6
CONTINUOUS
62
2
10
9175.000000
20
1945.000000
30
0.000000
11
9175.000000
21
1900.000000
31
0.000000
39
0.000000
0
LINE
8
_2-5_建具
6
CONTINUOUS
62
2
10
9155.000000
20
1945.000000
30
0.000000
11
9175.000000
21
1945.000000
31
0.000000
39
0.000000
0
LINE
8
_2-5_建具
6
CONTINUOUS
62
2
10
9155.000000
20
2707.500000
30
0.000000
11
9155.000000
21
2752.500000
31
0.000000
39
0.000000
0
LINE
8
_2-5_建具
6
CONTINUOUS
62
2
10
9175.000000
20
2707.500000
30
0.000000
11
9155.000000
21
2707.500000
31
0.000000
39
0.000000
0
LINE
8
_2-5_建具
6
CONTINUOUS
62
2
10
9175.000000
20
2752.500000
30
0.000000
11
9175.000000
21
2707.500000
31
0.000000
39
0.000000
0
LINE
8
_2-5_建具
6
CONTINUOUS
62
2
10
9155.000000
20
2752.500000
30
0.000000
11
9175.000000
21
2752.500000
31
0.000000
39
0.000000
0
LINE
8
_2-5_建具
6
CONTINUOUS
62
2
10
9205.000000
20
2707.500000
30
0.000000
11
9185.000000
21
2707.500000
31
0.000000
39
0.000000
0
LINE
8
_2-5_建具
6
CONTINUOUS
62
2
10
9205.000000
20
2752.500000
30
0.000000
11
9205.000000
21
2707.500000
31
0.000000
39
0.000000
0
LINE
8
_2-5_建具
6
CONTINUOUS
62
2
10
9185.000000
20
2752.500000
30
0.000000
11
9205.000000
21
2752.500000
31
0.000000
39
0.000000
0
LINE
8
_2-5_建具
6
CONTINUOUS
62
2
10
9185.000000
20
2707.500000
30
0.000000
11
9185.000000
21
2752.500000
31
0.000000
39
0.000000
0
LINE
8
_2-5_建具
6
CONTINUOUS
62
2
10
9185.000000
20
3515.000000
30
0.000000
11
9185.000000
21
3560.000000
31
0.000000
39
0.000000
0
LINE
8
_2-5_建具
6
CONTINUOUS
62
2
10
9205.000000
20
3515.000000
30
0.000000
11
9185.000000
21
3515.000000
31
0.000000
39
0.000000
0
LINE
8
_2-5_建具
6
CONTINUOUS
62
2
10
9185.000000
20
3560.000000
30
0.000000
11
9205.000000
21
3560.000000
31
0.000000
39
0.000000
0
LINE
8
_2-5_建具
6
CONTINUOUS
62
2
10
9205.000000
20
3560.000000
30
0.000000
11
9205.000000
21
3515.000000
31
0.000000
39
0.000000
0
LINE
8
_2-5_建具
6
CONTINUOUS
62
3
10
9215.000000
20
3560.000000
30
0.000000
11
9145.000000
21
3560.000000
31
0.000000
39
0.000000
0
LINE
8
_2-5_建具
6
CONTINUOUS
62
3
10
9195.000000
20
2752.500000
30
0.000000
11
9195.000000
21
3515.000000
31
0.000000
39
0.000000
0
LINE
8
_2-5_建具
6
CONTINUOUS
62
3
10
9165.000000
20
1945.000000
30
0.000000
11
9165.000000
21
2707.500000
31
0.000000
39
0.000000
0
LINE
8
_2-5_建具
6
CONTINUOUS
62
7
10
9215.000000
20
3560.000000
30
0.000000
11
9215.000000
21
1900.000000
31
0.000000
39
0.000000
0
LINE
8
_2-5_建具
6
CONTINUOUS
62
7
10
9145.000000
20
3560.000000
30
0.000000
11
9145.000000
21
1900.000000
31
0.000000
39
0.000000
0
LINE
8
_2-5_建具
6
CONTINUOUS
62
3
10
9215.000000
20
3580.000000
30
0.000000
11
9160.000000
21
3580.000000
31
0.000000
39
0.000000
0
LINE
8
_2-5_建具
6
CONTINUOUS
62
3
10
9215.000000
20
3580.000000
30
0.000000
11
9215.000000
21
3560.000000
31
0.000000
39
0.000000
0
LINE
8
_2-5_建具
6
CONTINUOUS
62
3
10
9145.000000
20
3580.000000
30
0.000000
11
9145.000000
21
3560.000000
31
0.000000
39
0.000000
0
LINE
8
_2-5_建具
6
CONTINUOUS
62
3
10
9040.000000
20
3580.000000
30
0.000000
11
9015.500000
21
3580.000000
31
0.000000
39
0.000000
0
LINE
8
_2-5_建具
6
CONTINUOUS
62
3
10
9015.500000
20
3580.000000
30
0.000000
11
9015.500000
21
3560.000000
31
0.000000
39
0.000000
0
LINE
8
_2-5_建具
6
CONTINUOUS
62
3
10
9015.500000
20
3560.000000
30
0.000000
11
9145.000000
21
3560.000000
31
0.000000
39
0.000000
0
LINE
8
_2-5_建具
6
CONTINUOUS
62
3
10
9215.000000
20
1900.000000
30
0.000000
11
9145.000000
21
1900.000000
31
0.000000
39
0.000000
0
LINE
8
_2-5_建具
6
CONTINUOUS
62
3
10
9215.000000
20
1880.000000
30
0.000000
11
9160.000000
21
1880.000000
31
0.000000
39
0.000000
0
LINE
8
_2-5_建具
6
CONTINUOUS
62
3
10
9215.000000
20
1880.000000
30
0.000000
11
9215.000000
21
1900.000000
31
0.000000
39
0.000000
0
LINE
8
_2-5_建具
6
CONTINUOUS
62
3
10
9145.000000
20
1880.000000
30
0.000000
11
9145.000000
21
1900.000000
31
0.000000
39
0.000000
0
LINE
8
_2-5_建具
6
CONTINUOUS
62
3
10
9040.000000
20
1880.000000
30
0.000000
11
9015.500000
21
1880.000000
31
0.000000
39
0.000000
0
LINE
8
_2-5_建具
6
CONTINUOUS
62
3
10
9015.500000
20
1880.000000
30
0.000000
11
9015.500000
21
1900.000000
31
0.000000
39
0.000000
0
LINE
8
_2-5_建具
6
CONTINUOUS
62
3
10
9015.500000
20
1900.000000
30
0.000000
11
9145.000000
21
1900.000000
31
0.000000
39
0.000000
0
LINE
8
_2-5_建具
6
CONTINUOUS
62
7
10
9015.500000
20
1900.000000
30
0.000000
11
9015.500000
21
3560.000000
31
0.000000
39
0.000000
0
LINE
8
_2-5_建具
6
CONTINUOUS
62
7
10
9480.000000
20
2730.000000
30
0.000000
11
8880.000000
21
2730.000000
31
0.000000
39
0.000000
0
LINE
8
_2-5_建具
6
CONTINUOUS
62
7
10
9480.000000
20
2730.000000
30
0.000000
11
9360.000000
21
2790.000000
31
0.000000
39
0.000000
0
LINE
8
_2-5_建具
6
CONTINUOUS
62
7
10
8880.000000
20
2730.000000
30
0.000000
11
9000.000000
21
2670.000000
31
0.000000
39
0.000000
0
LINE
8
_2-5_建具
6
CONTINUOUS
62
7
10
8997.500000
20
4605.000000
30
0.000000
11
6472.500000
21
4605.000000
31
0.000000
39
0.000000
0
LINE
8
_2-5_建具
6
CONTINUOUS
62
7
10
8997.500000
20
4495.000000
30
0.000000
11
6472.500000
21
4495.000000
31
0.000000
39
0.000000
0
LINE
8
_2-5_建具
6
CONTINUOUS
62
7
10
8997.500000
20
4497.500000
30
0.000000
11
8129.166667
21
4497.500000
31
0.000000
39
0.000000
0
LINE
8
_2-5_建具
6
CONTINUOUS
62
7
10
8129.166667
20
4497.500000
30
0.000000
11
8129.166667
21
4532.500000
31
0.000000
39
0.000000
0
LINE
8
_2-5_建具
6
CONTINUOUS
62
7
10
8129.166667
20
4532.500000
30
0.000000
11
8997.500000
21
4532.500000
31
0.000000
39
0.000000
0
LINE
8
_2-5_建具
6
CONTINUOUS
62
7
10
7300.833333
20
4532.500000
30
0.000000
11
8129.166667
21
4532.500000
31
0.000000
39
0.000000
0
LINE
8
_2-5_建具
6
CONTINUOUS
62
7
10
7300.833333
20
4532.500000
30
0.000000
11
7300.833333
21
4567.500000
31
0.000000
39
0.000000
0
LINE
8
_2-5_建具
6
CONTINUOUS
62
7
10
7300.833333
20
4567.500000
30
0.000000
11
8169.166667
21
4567.500000
31
0.000000
39
0.000000
0
LINE
8
_2-5_建具
6
CONTINUOUS
62
7
10
8169.166667
20
4567.500000
30
0.000000
11
8169.166667
21
4532.500000
31
0.000000
39
0.000000
0
LINE
8
_2-5_建具
6
CONTINUOUS
62
7
10
6472.500000
20
4567.500000
30
0.000000
11
7300.833333
21
4567.500000
31
0.000000
39
0.000000
0
LINE
8
_2-5_建具
6
CONTINUOUS
62
7
10
6472.500000
20
4602.500000
30
0.000000
11
7340.833333
21
4602.500000
31
0.000000
39
0.000000
0
LINE
8
_2-5_建具
6
CONTINUOUS
62
7
10
7340.833333
20
4602.500000
30
0.000000
11
7340.833333
21
4567.500000
31
0.000000
39
0.000000
0
LINE
8
_2-5_建具
6
CONTINUOUS
62
7
10
7735.000000
20
4250.000000
30
0.000000
11
7735.000000
21
4850.000000
31
0.000000
39
0.000000
0
LINE
8
_2-5_建具
6
CONTINUOUS
62
7
10
7735.000000
20
4250.000000
30
0.000000
11
7795.000000
21
4370.000000
31
0.000000
39
0.000000
0
LINE
8
_2-5_建具
6
CONTINUOUS
62
7
10
7735.000000
20
4850.000000
30
0.000000
11
7675.000000
21
4730.000000
31
0.000000
39
0.000000
0
LINE
8
_2-5_建具
6
CONTINUOUS
62
7
10
8149.166667
20
4450.000000
30
0.000000
11
8149.166667
21
4650.000000
31
0.000000
39
0.000000
0
LINE
8
_2-5_建具
6
CONTINUOUS
62
7
10
7320.833333
20
4450.000000
30
0.000000
11
7320.833333
21
4650.000000
31
0.000000
39
0.000000
0
LINE
8
_2-5_建具
6
CONTINUOUS
62
3
10
9027.500000
20
4465.500000
30
0.000000
11
8997.500000
21
4465.500000
31
0.000000
39
0.000000
0
LINE
8
_2-5_建具
6
CONTINUOUS
62
3
10
8997.500000
20
4465.500000
30
0.000000
11
8997.500000
21
4634.500000
31
0.000000
39
0.000000
0
LINE
8
_2-5_建具
6
CONTINUOUS
62
3
10
8997.500000
20
4634.500000
30
0.000000
11
9027.500000
21
4634.500000
31
0.000000
39
0.000000
0
LINE
8
_2-5_建具
6
CONTINUOUS
62
3
10
9027.500000
20
4634.500000
30
0.000000
11
9027.500000
21
4465.500000
31
0.000000
39
0.000000
0
LINE
8
_2-5_建具
6
CONTINUOUS
62
3
10
6442.500000
20
4465.500000
30
0.000000
11
6472.500000
21
4465.500000
31
0.000000
39
0.000000
0
LINE
8
_2-5_建具
6
CONTINUOUS
62
3
10
6472.500000
20
4465.500000
30
0.000000
11
6472.500000
21
4634.500000
31
0.000000
39
0.000000
0
LINE
8
_2-5_建具
6
CONTINUOUS
62
3
10
6472.500000
20
4634.500000
30
0.000000
11
6442.500000
21
4634.500000
31
0.000000
39
0.000000
0
LINE
8
_2-5_建具
6
CONTINUOUS
62
3
10
6442.500000
20
4634.500000
30
0.000000
11
6442.500000
21
4465.500000
31
0.000000
39
0.000000
0
LINE
8
_2-5_建具
6
CONTINUOUS
62
2
10
1765.000000
20
3560.000000
30
0.000000
11
1765.000000
21
3515.000000
31
0.000000
39
0.000000
0
LINE
8
_2-5_建具
6
CONTINUOUS
62
2
10
1745.000000
20
3560.000000
30
0.000000
11
1765.000000
21
3560.000000
31
0.000000
39
0.000000
0
LINE
8
_2-5_建具
6
CONTINUOUS
62
2
10
1745.000000
20
3515.000000
30
0.000000
11
1745.000000
21
3560.000000
31
0.000000
39
0.000000
0
LINE
8
_2-5_建具
6
CONTINUOUS
62
2
10
1765.000000
20
3515.000000
30
0.000000
11
1745.000000
21
3515.000000
31
0.000000
39
0.000000
0
LINE
8
_2-5_建具
6
CONTINUOUS
62
2
10
1765.000000
20
2752.500000
30
0.000000
11
1765.000000
21
2707.500000
31
0.000000
39
0.000000
0
LINE
8
_2-5_建具
6
CONTINUOUS
62
2
10
1745.000000
20
2752.500000
30
0.000000
11
1765.000000
21
2752.500000
31
0.000000
39
0.000000
0
LINE
8
_2-5_建具
6
CONTINUOUS
62
2
10
1745.000000
20
2707.500000
30
0.000000
11
1745.000000
21
2752.500000
31
0.000000
39
0.000000
0
LINE
8
_2-5_建具
6
CONTINUOUS
62
2
10
1765.000000
20
2707.500000
30
0.000000
11
1745.000000
21
2707.500000
31
0.000000
39
0.000000
0
LINE
8
_2-5_建具
6
CONTINUOUS
62
2
10
1715.000000
20
2752.500000
30
0.000000
11
1735.000000
21
2752.500000
31
0.000000
39
0.000000
0
LINE
8
_2-5_建具
6
CONTINUOUS
62
2
10
1715.000000
20
2707.500000
30
0.000000
11
1715.000000
21
2752.500000
31
0.000000
39
0.000000
0
LINE
8
_2-5_建具
6
CONTINUOUS
62
2
10
1735.000000
20
2707.500000
30
0.000000
11
1715.000000
21
2707.500000
31
0.000000
39
0.000000
0
LINE
8
_2-5_建具
6
CONTINUOUS
62
2
10
1735.000000
20
2752.500000
30
0.000000
11
1735.000000
21
2707.500000
31
0.000000
39
0.000000
0
LINE
8
_2-5_建具
6
CONTINUOUS
62
2
10
1735.000000
20
1945.000000
30
0.000000
11
1735.000000
21
1900.000000
31
0.000000
39
0.000000
0
LINE
8
_2-5_建具
6
CONTINUOUS
62
2
10
1715.000000
20
1945.000000
30
0.000000
11
1735.000000
21
1945.000000
31
0.000000
39
0.000000
0
LINE
8
_2-5_建具
6
CONTINUOUS
62
2
10
1735.000000
20
1900.000000
30
0.000000
11
1715.000000
21
1900.000000
31
0.000000
39
0.000000
0
LINE
8
_2-5_建具
6
CONTINUOUS
62
2
10
1715.000000
20
1900.000000
30
0.000000
11
1715.000000
21
1945.000000
31
0.000000
39
0.000000
0
LINE
8
_2-5_建具
6
CONTINUOUS
62
3
10
1705.000000
20
1900.000000
30
0.000000
11
1775.000000
21
1900.000000
31
0.000000
39
0.000000
0
LINE
8
_2-5_建具
6
CONTINUOUS
62
3
10
1725.000000
20
2707.500000
30
0.000000
11
1725.000000
21
1945.000000
31
0.000000
39
0.000000
0
LINE
8
_2-5_建具
6
CONTINUOUS
62
3
10
1755.000000
20
3515.000000
30
0.000000
11
1755.000000
21
2752.500000
31
0.000000
39
0.000000
0
LINE
8
_2-5_建具
6
CONTINUOUS
62
7
10
1705.000000
20
1900.000000
30
0.000000
11
1705.000000
21
3560.000000
31
0.000000
39
0.000000
0
LINE
8
_2-5_建具
6
CONTINUOUS
62
7
10
1775.000000
20
1900.000000
30
0.000000
11
1775.000000
21
3560.000000
31
0.000000
39
0.000000
0
LINE
8
_2-5_建具
6
CONTINUOUS
62
3
10
1705.000000
20
1880.000000
30
0.000000
11
1760.000000
21
1880.000000
31
0.000000
39
0.000000
0
LINE
8
_2-5_建具
6
CONTINUOUS
62
3
10
1705.000000
20
1880.000000
30
0.000000
11
1705.000000
21
1900.000000
31
0.000000
39
0.000000
0
LINE
8
_2-5_建具
6
CONTINUOUS
62
3
10
1775.000000
20
1880.000000
30
0.000000
11
1775.000000
21
1900.000000
31
0.000000
39
0.000000
0
LINE
8
_2-5_建具
6
CONTINUOUS
62
3
10
1880.000000
20
1880.000000
30
0.000000
11
1904.500000
21
1880.000000
31
0.000000
39
0.000000
0
LINE
8
_2-5_建具
6
CONTINUOUS
62
3
10
1904.500000
20
1880.000000
30
0.000000
11
1904.500000
21
1900.000000
31
0.000000
39
0.000000
0
LINE
8
_2-5_建具
6
CONTINUOUS
62
3
10
1904.500000
20
1900.000000
30
0.000000
11
1775.000000
21
1900.000000
31
0.000000
39
0.000000
0
LINE
8
_2-5_建具
6
CONTINUOUS
62
3
10
1705.000000
20
3560.000000
30
0.000000
11
1775.000000
21
3560.000000
31
0.000000
39
0.000000
0
LINE
8
_2-5_建具
6
CONTINUOUS
62
3
10
1705.000000
20
3580.000000
30
0.000000
11
1760.000000
21
3580.000000
31
0.000000
39
0.000000
0
LINE
8
_2-5_建具
6
CONTINUOUS
62
3
10
1705.000000
20
3580.000000
30
0.000000
11
1705.000000
21
3560.000000
31
0.000000
39
0.000000
0
LINE
8
_2-5_建具
6
CONTINUOUS
62
3
10
1775.000000
20
3580.000000
30
0.000000
11
1775.000000
21
3560.000000
31
0.000000
39
0.000000
0
LINE
8
_2-5_建具
6
CONTINUOUS
62
3
10
1880.000000
20
3580.000000
30
0.000000
11
1904.500000
21
3580.000000
31
0.000000
39
0.000000
0
LINE
8
_2-5_建具
6
CONTINUOUS
62
3
10
1904.500000
20
3580.000000
30
0.000000
11
1904.500000
21
3560.000000
31
0.000000
39
0.000000
0
LINE
8
_2-5_建具
6
CONTINUOUS
62
3
10
1904.500000
20
3560.000000
30
0.000000
11
1775.000000
21
3560.000000
31
0.000000
39
0.000000
0
LINE
8
_2-5_建具
6
CONTINUOUS
62
7
10
1904.500000
20
3560.000000
30
0.000000
11
1904.500000
21
1900.000000
31
0.000000
39
0.000000
0
LINE
8
_2-5_建具
6
CONTINUOUS
62
7
10
2040.000000
20
2730.000000
30
0.000000
11
1440.000000
21
2730.000000
31
0.000000
39
0.000000
0
LINE
8
_2-5_建具
6
CONTINUOUS
62
7
10
2040.000000
20
2730.000000
30
0.000000
11
1920.000000
21
2790.000000
31
0.000000
39
0.000000
0
LINE
8
_2-5_建具
6
CONTINUOUS
62
7
10
1440.000000
20
2730.000000
30
0.000000
11
1560.000000
21
2670.000000
31
0.000000
39
0.000000
0
LINE
8
_2-5_建具
6
CONTINUOUS
62
3
10
4470.000000
20
850.000000
30
0.000000
11
4470.000000
21
745.000000
31
0.000000
39
0.000000
0
LINE
8
_2-5_建具
6
CONTINUOUS
62
3
10
4470.000000
20
745.000000
30
0.000000
11
4485.000000
21
745.000000
31
0.000000
39
0.000000
0
LINE
8
_2-5_建具
6
CONTINUOUS
62
3
10
4485.000000
20
745.000000
30
0.000000
11
4485.000000
21
780.000000
31
0.000000
39
0.000000
0
LINE
8
_2-5_建具
6
CONTINUOUS
62
3
10
4485.000000
20
780.000000
30
0.000000
11
4470.000000
21
780.000000
31
0.000000
39
0.000000
0
LINE
8
_2-5_建具
6
CONTINUOUS
62
3
10
2810.000000
20
745.000000
30
0.000000
11
2810.000000
21
695.000000
31
0.000000
39
0.000000
0
LINE
8
_2-5_建具
6
CONTINUOUS
62
3
10
2810.000000
20
695.000000
30
0.000000
11
1910.000000
21
695.000000
31
0.000000
39
0.000000
0
LINE
8
_2-5_建具
6
CONTINUOUS
62
3
10
1910.000000
20
695.000000
30
0.000000
11
1910.000000
21
780.000000
31
0.000000
39
0.000000
0
LINE
8
_2-5_建具
6
CONTINUOUS
62
3
10
1910.000000
20
780.000000
30
0.000000
11
2810.000000
21
780.000000
31
0.000000
39
0.000000
0
LINE
8
_2-5_建具
6
CONTINUOUS
62
3
10
2810.000000
20
780.000000
30
0.000000
11
2810.000000
21
850.000000
31
0.000000
39
0.000000
0
LINE
8
_2-5_建具
6
CONTINUOUS
62
3
10
4470.000000
20
745.000000
30
0.000000
11
2810.000000
21
745.000000
31
0.000000
39
0.000000
0
LINE
8
_2-5_建具
6
CONTINUOUS
62
2
10
2810.000000
20
855.000000
30
0.000000
11
2855.000000
21
855.000000
31
0.000000
39
0.000000
0
LINE
8
_2-5_建具
6
CONTINUOUS
62
2
10
2810.000000
20
835.000000
30
0.000000
11
2810.000000
21
855.000000
31
0.000000
39
0.000000
0
LINE
8
_2-5_建具
6
CONTINUOUS
62
2
10
2855.000000
20
835.000000
30
0.000000
11
2810.000000
21
835.000000
31
0.000000
39
0.000000
0
LINE
8
_2-5_建具
6
CONTINUOUS
62
2
10
2855.000000
20
855.000000
30
0.000000
11
2855.000000
21
835.000000
31
0.000000
39
0.000000
0
LINE
8
_2-5_建具
6
CONTINUOUS
62
2
10
3617.500000
20
855.000000
30
0.000000
11
3662.500000
21
855.000000
31
0.000000
39
0.000000
0
LINE
8
_2-5_建具
6
CONTINUOUS
62
2
10
3617.500000
20
835.000000
30
0.000000
11
3617.500000
21
855.000000
31
0.000000
39
0.000000
0
LINE
8
_2-5_建具
6
CONTINUOUS
62
2
10
3662.500000
20
835.000000
30
0.000000
11
3617.500000
21
835.000000
31
0.000000
39
0.000000
0
LINE
8
_2-5_建具
6
CONTINUOUS
62
2
10
3662.500000
20
855.000000
30
0.000000
11
3662.500000
21
835.000000
31
0.000000
39
0.000000
0
LINE
8
_2-5_建具
6
CONTINUOUS
62
2
10
3617.500000
20
805.000000
30
0.000000
11
3617.500000
21
825.000000
31
0.000000
39
0.000000
0
LINE
8
_2-5_建具
6
CONTINUOUS
62
2
10
3662.500000
20
805.000000
30
0.000000
11
3617.500000
21
805.000000
31
0.000000
39
0.000000
0
LINE
8
_2-5_建具
6
CONTINUOUS
62
2
10
3662.500000
20
825.000000
30
0.000000
11
3662.500000
21
805.000000
31
0.000000
39
0.000000
0
LINE
8
_2-5_建具
6
CONTINUOUS
62
2
10
3617.500000
20
825.000000
30
0.000000
11
3662.500000
21
825.000000
31
0.000000
39
0.000000
0
LINE
8
_2-5_建具
6
CONTINUOUS
62
2
10
4425.000000
20
825.000000
30
0.000000
11
4470.000000
21
825.000000
31
0.000000
39
0.000000
0
LINE
8
_2-5_建具
6
CONTINUOUS
62
2
10
4425.000000
20
805.000000
30
0.000000
11
4425.000000
21
825.000000
31
0.000000
39
0.000000
0
LINE
8
_2-5_建具
6
CONTINUOUS
62
2
10
4470.000000
20
825.000000
30
0.000000
11
4470.000000
21
805.000000
31
0.000000
39
0.000000
0
LINE
8
_2-5_建具
6
CONTINUOUS
62
2
10
4470.000000
20
805.000000
30
0.000000
11
4425.000000
21
805.000000
31
0.000000
39
0.000000
0
LINE
8
_2-5_建具
6
CONTINUOUS
62
3
10
4470.000000
20
865.000000
30
0.000000
11
4470.000000
21
850.000000
31
0.000000
39
0.000000
0
LINE
8
_2-5_建具
6
CONTINUOUS
62
3
10
3662.500000
20
815.000000
30
0.000000
11
4425.000000
21
815.000000
31
0.000000
39
0.000000
0
LINE
8
_2-5_建具
6
CONTINUOUS
62
3
10
2855.000000
20
845.000000
30
0.000000
11
3617.500000
21
845.000000
31
0.000000
39
0.000000
0
LINE
8
_2-5_建具
6
CONTINUOUS
62
7
10
4470.000000
20
795.000000
30
0.000000
11
2810.000000
21
795.000000
31
0.000000
39
0.000000
0
LINE
8
_2-5_建具
6
CONTINUOUS
62
7
10
4470.000000
20
865.000000
30
0.000000
11
2810.000000
21
865.000000
31
0.000000
39
0.000000
0
LINE
8
_2-5_建具
6
CONTINUOUS
62
3
10
4490.000000
20
795.000000
30
0.000000
11
4490.000000
21
850.000000
31
0.000000
39
0.000000
0
LINE
8
_2-5_建具
6
CONTINUOUS
62
3
10
4490.000000
20
795.000000
30
0.000000
11
4470.000000
21
795.000000
31
0.000000
39
0.000000
0
LINE
8
_2-5_建具
6
CONTINUOUS
62
3
10
4490.000000
20
865.000000
30
0.000000
11
4470.000000
21
865.000000
31
0.000000
39
0.000000
0
LINE
8
_2-5_建具
6
CONTINUOUS
62
3
10
4490.000000
20
970.000000
30
0.000000
11
4490.000000
21
994.500000
31
0.000000
39
0.000000
0
LINE
8
_2-5_建具
6
CONTINUOUS
62
3
10
4490.000000
20
994.500000
30
0.000000
11
4470.000000
21
994.500000
31
0.000000
39
0.000000
0
LINE
8
_2-5_建具
6
CONTINUOUS
62
3
10
4470.000000
20
994.500000
30
0.000000
11
4470.000000
21
865.000000
31
0.000000
39
0.000000
0
LINE
8
_2-5_建具
6
CONTINUOUS
62
3
10
2810.000000
20
850.000000
30
0.000000
11
2810.000000
21
865.000000
31
0.000000
39
0.000000
0
LINE
8
_2-5_建具
6
CONTINUOUS
62
3
10
2790.000000
20
795.000000
30
0.000000
11
2790.000000
21
850.000000
31
0.000000
39
0.000000
0
LINE
8
_2-5_建具
6
CONTINUOUS
62
3
10
2790.000000
20
795.000000
30
0.000000
11
2810.000000
21
795.000000
31
0.000000
39
0.000000
0
LINE
8
_2-5_建具
6
CONTINUOUS
62
3
10
2790.000000
20
865.000000
30
0.000000
11
2810.000000
21
865.000000
31
0.000000
39
0.000000
0
LINE
8
_2-5_建具
6
CONTINUOUS
62
3
10
2790.000000
20
970.000000
30
0.000000
11
2790.000000
21
994.500000
31
0.000000
39
0.000000
0
LINE
8
_2-5_建具
6
CONTINUOUS
62
3
10
2790.000000
20
994.500000
30
0.000000
11
2810.000000
21
994.500000
31
0.000000
39
0.000000
0
LINE
8
_2-5_建具
6
CONTINUOUS
62
3
10
2810.000000
20
994.500000
30
0.000000
11
2810.000000
21
865.000000
31
0.000000
39
0.000000
0
LINE
8
_2-5_建具
6
CONTINUOUS
62
7
10
2810.000000
20
994.500000
30
0.000000
11
4470.000000
21
994.500000
31
0.000000
39
0.000000
0
LINE
8
_2-5_建具
6
CONTINUOUS
62
7
10
3640.000000
20
530.000000
30
0.000000
11
3640.000000
21
1130.000000
31
0.000000
39
0.000000
0
LINE
8
_2-5_建具
6
CONTINUOUS
62
7
10
3640.000000
20
530.000000
30
0.000000
11
3700.000000
21
650.000000
31
0.000000
39
0.000000
0
LINE
8
_2-5_建具
6
CONTINUOUS
62
7
10
3640.000000
20
1130.000000
30
0.000000
11
3580.000000
21
1010.000000
31
0.000000
39
0.000000
0
LINE
8
_2-5_建具
6
CONTINUOUS
62
7
10
1922.500000
20
4495.000000
30
0.000000
11
4447.500000
21
4495.000000
31
0.000000
39
0.000000
0
LINE
8
_2-5_建具
6
CONTINUOUS
62
7
10
1922.500000
20
4605.000000
30
0.000000
11
4447.500000
21
4605.000000
31
0.000000
39
0.000000
0
LINE
8
_2-5_建具
6
CONTINUOUS
62
7
10
1922.500000
20
4602.500000
30
0.000000
11
2790.833333
21
4602.500000
31
0.000000
39
0.000000
0
LINE
8
_2-5_建具
6
CONTINUOUS
62
7
10
2790.833333
20
4602.500000
30
0.000000
11
2790.833333
21
4567.500000
31
0.000000
39
0.000000
0
LINE
8
_2-5_建具
6
CONTINUOUS
62
7
10
2790.833333
20
4567.500000
30
0.000000
11
1922.500000
21
4567.500000
31
0.000000
39
0.000000
0
LINE
8
_2-5_建具
6
CONTINUOUS
62
7
10
3619.166667
20
4567.500000
30
0.000000
11
2790.833333
21
4567.500000
31
0.000000
39
0.000000
0
LINE
8
_2-5_建具
6
CONTINUOUS
62
7
10
3619.166667
20
4567.500000
30
0.000000
11
3619.166667
21
4532.500000
31
0.000000
39
0.000000
0
LINE
8
_2-5_建具
6
CONTINUOUS
62
7
10
3619.166667
20
4532.500000
30
0.000000
11
2750.833333
21
4532.500000
31
0.000000
39
0.000000
0
LINE
8
_2-5_建具
6
CONTINUOUS
62
7
10
2750.833333
20
4532.500000
30
0.000000
11
2750.833333
21
4567.500000
31
0.000000
39
0.000000
0
LINE
8
_2-5_建具
6
CONTINUOUS
62
7
10
4447.500000
20
4532.500000
30
0.000000
11
3619.166667
21
4532.500000
31
0.000000
39
0.000000
0
LINE
8
_2-5_建具
6
CONTINUOUS
62
7
10
4447.500000
20
4497.500000
30
0.000000
11
3579.166667
21
4497.500000
31
0.000000
39
0.000000
0
LINE
8
_2-5_建具
6
CONTINUOUS
62
7
10
3579.166667
20
4497.500000
30
0.000000
11
3579.166667
21
4532.500000
31
0.000000
39
0.000000
0
LINE
8
_2-5_建具
6
CONTINUOUS
62
7
10
3185.000000
20
4850.000000
30
0.000000
11
3185.000000
21
4250.000000
31
0.000000
39
0.000000
0
LINE
8
_2-5_建具
6
CONTINUOUS
62
7
10
3185.000000
20
4850.000000
30
0.000000
11
3125.000000
21
4730.000000
31
0.000000
39
0.000000
0
LINE
8
_2-5_建具
6
CONTINUOUS
62
7
10
3185.000000
20
4250.000000
30
0.000000
11
3245.000000
21
4370.000000
31
0.000000
39
0.000000
0
LINE
8
_2-5_建具
6
CONTINUOUS
62
7
10
2770.833333
20
4650.000000
30
0.000000
11
2770.833333
21
4450.000000
31
0.000000
39
0.000000
0
LINE
8
_2-5_建具
6
CONTINUOUS
62
7
10
3599.166667
20
4650.000000
30
0.000000
11
3599.166667
21
4450.000000
31
0.000000
39
0.000000
0
LINE
8
_2-5_建具
6
CONTINUOUS
62
3
10
1892.500000
20
4634.500000
30
0.000000
11
1922.500000
21
4634.500000
31
0.000000
39
0.000000
0
LINE
8
_2-5_建具
6
CONTINUOUS
62
3
10
1922.500000
20
4634.500000
30
0.000000
11
1922.500000
21
4465.500000
31
0.000000
39
0.000000
0
LINE
8
_2-5_建具
6
CONTINUOUS
62
3
10
1922.500000
20
4465.500000
30
0.000000
11
1892.500000
21
4465.500000
31
0.000000
39
0.000000
0
LINE
8
_2-5_建具
6
CONTINUOUS
62
3
10
1892.500000
20
4465.500000
30
0.000000
11
1892.500000
21
4634.500000
31
0.000000
39
0.000000
0
LINE
8
_2-5_建具
6
CONTINUOUS
62
3
10
4477.500000
20
4634.500000
30
0.000000
11
4447.500000
21
4634.500000
31
0.000000
39
0.000000
0
LINE
8
_2-5_建具
6
CONTINUOUS
62
3
10
4447.500000
20
4634.500000
30
0.000000
11
4447.500000
21
4465.500000
31
0.000000
39
0.000000
0
LINE
8
_2-5_建具
6
CONTINUOUS
62
3
10
4447.500000
20
4465.500000
30
0.000000
11
4477.500000
21
4465.500000
31
0.000000
39
0.000000
0
LINE
8
_2-5_建具
6
CONTINUOUS
62
3
10
4477.500000
20
4465.500000
30
0.000000
11
4477.500000
21
4634.500000
31
0.000000
39
0.000000
0
LINE
8
_2-5_建具
6
CONTINUOUS
62
7
10
5515.000000
20
1012.500000
30
0.000000
11
5515.000000
21
2172.500000
31
0.000000
39
0.000000
0
LINE
8
_2-5_建具
6
CONTINUOUS
62
7
10
5438.000000
20
1012.500000
30
0.000000
11
5438.000000
21
2172.500000
31
0.000000
39
0.000000
0
LINE
8
_2-5_建具
6
CONTINUOUS
62
7
10
5544.500000
20
1012.500000
30
0.000000
11
6075.000000
21
1012.500000
31
0.000000
39
0.000000
0
LINE
8
_2-5_建具
6
CONTINUOUS
62
7
10
5495.000000
20
1047.500000
30
0.000000
11
6075.000000
21
1047.500000
31
0.000000
39
0.000000
0
LINE
8
_2-5_建具
6
CONTINUOUS
62
7
10
5495.000000
20
1012.500000
30
0.000000
11
5495.000000
21
1047.500000
31
0.000000
39
0.000000
0
LINE
8
_2-5_建具
6
CONTINUOUS
62
7
10
5544.500000
20
2172.500000
30
0.000000
11
6075.000000
21
2172.500000
31
0.000000
39
0.000000
0
LINE
8
_2-5_建具
6
CONTINUOUS
62
7
10
5495.000000
20
2137.500000
30
0.000000
11
6075.000000
21
2137.500000
31
0.000000
39
0.000000
0
LINE
8
_2-5_建具
6
CONTINUOUS
62
7
10
5495.000000
20
2172.500000
30
0.000000
11
5495.000000
21
2137.500000
31
0.000000
39
0.000000
0
LINE
8
_2-5_建具
6
CONTINUOUS
62
7
10
5150.000000
20
1592.500000
30
0.000000
11
5750.000000
21
1592.500000
31
0.000000
39
0.000000
0
LINE
8
_2-5_建具
6
CONTINUOUS
62
7
10
5150.000000
20
1592.500000
30
0.000000
11
5270.000000
21
1532.500000
31
0.000000
39
0.000000
0
LINE
8
_2-5_建具
6
CONTINUOUS
62
7
10
5750.000000
20
1592.500000
30
0.000000
11
5630.000000
21
1652.500000
31
0.000000
39
0.000000
0
LINE
8
_2-5_建具
6
CONTINUOUS
62
3
10
5375.500000
20
982.500000
30
0.000000
11
5375.500000
21
1012.500000
31
0.000000
39
0.000000
0
LINE
8
_2-5_建具
6
CONTINUOUS
62
3
10
5375.500000
20
1012.500000
30
0.000000
11
5440.000000
21
1012.500000
31
0.000000
39
0.000000
0
LINE
8
_2-5_建具
6
CONTINUOUS
62
3
10
5460.000000
20
1012.500000
30
0.000000
11
5544.500000
21
1012.500000
31
0.000000
39
0.000000
0
LINE
8
_2-5_建具
6
CONTINUOUS
62
3
10
5544.500000
20
1012.500000
30
0.000000
11
5544.500000
21
982.500000
31
0.000000
39
0.000000
0
LINE
8
_2-5_建具
6
CONTINUOUS
62
3
10
5544.500000
20
982.500000
30
0.000000
11
5375.500000
21
982.500000
31
0.000000
39
0.000000
0
LINE
8
_2-5_建具
6
CONTINUOUS
62
3
10
5375.500000
20
2202.500000
30
0.000000
11
5375.500000
21
2172.500000
31
0.000000
39
0.000000
0
LINE
8
_2-5_建具
6
CONTINUOUS
62
3
10
5375.500000
20
2172.500000
30
0.000000
11
5440.000000
21
2172.500000
31
0.000000
39
0.000000
0
LINE
8
_2-5_建具
6
CONTINUOUS
62
3
10
5460.000000
20
2172.500000
30
0.000000
11
5544.500000
21
2172.500000
31
0.000000
39
0.000000
0
LINE
8
_2-5_建具
6
CONTINUOUS
62
3
10
5544.500000
20
2172.500000
30
0.000000
11
5544.500000
21
2202.500000
31
0.000000
39
0.000000
0
LINE
8
_2-5_建具
6
CONTINUOUS
62
3
10
5544.500000
20
2202.500000
30
0.000000
11
5375.500000
21
2202.500000
31
0.000000
39
0.000000
0
LINE
8
_2-5_建具
6
CONTINUOUS
62
3
10
5445.000000
20
1007.500000
30
0.000000
11
5445.000000
21
1012.500000
31
0.000000
39
0.000000
0
LINE
8
_2-5_建具
6
CONTINUOUS
62
3
10
5445.000000
20
1012.500000
30
0.000000
11
5440.000000
21
1012.500000
31
0.000000
39
0.000000
0
LINE
8
_2-5_建具
6
CONTINUOUS
62
3
10
5440.000000
20
1012.500000
30
0.000000
11
5440.000000
21
1022.500000
31
0.000000
39
0.000000
0
LINE
8
_2-5_建具
6
CONTINUOUS
62
3
10
5440.000000
20
1022.500000
30
0.000000
11
5460.000000
21
1022.500000
31
0.000000
39
0.000000
0
LINE
8
_2-5_建具
6
CONTINUOUS
62
3
10
5460.000000
20
1022.500000
30
0.000000
11
5460.000000
21
1012.500000
31
0.000000
39
0.000000
0
LINE
8
_2-5_建具
6
CONTINUOUS
62
3
10
5460.000000
20
1012.500000
30
0.000000
11
5455.000000
21
1012.500000
31
0.000000
39
0.000000
0
LINE
8
_2-5_建具
6
CONTINUOUS
62
3
10
5455.000000
20
1012.500000
30
0.000000
11
5455.000000
21
1007.500000
31
0.000000
39
0.000000
0
LINE
8
_2-5_建具
6
CONTINUOUS
62
3
10
5455.000000
20
1007.500000
30
0.000000
11
5445.000000
21
1007.500000
31
0.000000
39
0.000000
0
LINE
8
_2-5_建具
6
CONTINUOUS
62
3
10
5455.000000
20
2177.500000
30
0.000000
11
5455.000000
21
2172.500000
31
0.000000
39
0.000000
0
LINE
8
_2-5_建具
6
CONTINUOUS
62
3
10
5455.000000
20
2172.500000
30
0.000000
11
5460.000000
21
2172.500000
31
0.000000
39
0.000000
0
LINE
8
_2-5_建具
6
CONTINUOUS
62
3
10
5460.000000
20
2172.500000
30
0.000000
11
5460.000000
21
2162.500000
31
0.000000
39
0.000000
0
LINE
8
_2-5_建具
6
CONTINUOUS
62
3
10
5460.000000
20
2162.500000
30
0.000000
11
5440.000000
21
2162.500000
31
0.000000
39
0.000000
0
LINE
8
_2-5_建具
6
CONTINUOUS
62
3
10
5440.000000
20
2162.500000
30
0.000000
11
5440.000000
21
2172.500000
31
0.000000
39
0.000000
0
LINE
8
_2-5_建具
6
CONTINUOUS
62
3
10
5440.000000
20
2172.500000
30
0.000000
11
5445.000000
21
2172.500000
31
0.000000
39
0.000000
0
LINE
8
_2-5_建具
6
CONTINUOUS
62
3
10
5445.000000
20
2172.500000
30
0.000000
11
5445.000000
21
2177.500000
31
0.000000
39
0.000000
0
LINE
8
_2-5_建具
6
CONTINUOUS
62
3
10
5445.000000
20
2177.500000
30
0.000000
11
5455.000000
21
2177.500000
31
0.000000
39
0.000000
0
LINE
8
_2-5_建具
6
CONTINUOUS
62
7
10
5515.000000
20
3095.000000
30
0.000000
11
5515.000000
21
2377.500000
31
0.000000
39
0.000000
0
LINE
8
_2-5_建具
6
CONTINUOUS
62
7
10
5438.000000
20
3095.000000
30
0.000000
11
5438.000000
21
2377.500000
31
0.000000
39
0.000000
0
LINE
8
_2-5_建具
6
CONTINUOUS
62
7
10
5544.500000
20
3095.000000
30
0.000000
11
6212.500000
21
3095.000000
31
0.000000
39
0.000000
0
LINE
8
_2-5_建具
6
CONTINUOUS
62
7
10
5495.000000
20
3060.000000
30
0.000000
11
6212.500000
21
3060.000000
31
0.000000
39
0.000000
0
LINE
8
_2-5_建具
6
CONTINUOUS
62
7
10
5495.000000
20
3095.000000
30
0.000000
11
5495.000000
21
3060.000000
31
0.000000
39
0.000000
0
LINE
8
_2-5_建具
6
CONTINUOUS
62
7
10
5750.000000
20
2736.250000
30
0.000000
11
5150.000000
21
2736.250000
31
0.000000
39
0.000000
0
LINE
8
_2-5_建具
6
CONTINUOUS
62
7
10
5750.000000
20
2736.250000
30
0.000000
11
5630.000000
21
2796.250000
31
0.000000
39
0.000000
0
LINE
8
_2-5_建具
6
CONTINUOUS
62
7
10
5150.000000
20
2736.250000
30
0.000000
11
5270.000000
21
2676.250000
31
0.000000
39
0.000000
0
LINE
8
_2-5_建具
6
CONTINUOUS
62
3
10
5375.500000
20
3125.000000
30
0.000000
11
5375.500000
21
3095.000000
31
0.000000
39
0.000000
0
LINE
8
_2-5_建具
6
CONTINUOUS
62
3
10
5375.500000
20
3095.000000
30
0.000000
11
5440.000000
21
3095.000000
31
0.000000
39
0.000000
0
LINE
8
_2-5_建具
6
CONTINUOUS
62
3
10
5460.000000
20
3095.000000
30
0.000000
11
5544.500000
21
3095.000000
31
0.000000
39
0.000000
0
LINE
8
_2-5_建具
6
CONTINUOUS
62
3
10
5544.500000
20
3095.000000
30
0.000000
11
5544.500000
21
3125.000000
31
0.000000
39
0.000000
0
LINE
8
_2-5_建具
6
CONTINUOUS
62
3
10
5544.500000
20
3125.000000
30
0.000000
11
5520.000000
21
3125.000000
31
0.000000
39
0.000000
0
LINE
8
_2-5_建具
6
CONTINUOUS
62
3
10
5400.000000
20
3125.000000
30
0.000000
11
5375.500000
21
3125.000000
31
0.000000
39
0.000000
0
LINE
8
_2-5_建具
6
CONTINUOUS
62
3
10
5375.500000
20
2347.500000
30
0.000000
11
5375.500000
21
2377.500000
31
0.000000
39
0.000000
0
LINE
8
_2-5_建具
6
CONTINUOUS
62
3
10
5375.500000
20
2377.500000
30
0.000000
11
5440.000000
21
2377.500000
31
0.000000
39
0.000000
0
LINE
8
_2-5_建具
6
CONTINUOUS
62
3
10
5460.000000
20
2377.500000
30
0.000000
11
5544.500000
21
2377.500000
31
0.000000
39
0.000000
0
LINE
8
_2-5_建具
6
CONTINUOUS
62
3
10
5544.500000
20
2377.500000
30
0.000000
11
5544.500000
21
2347.500000
31
0.000000
39
0.000000
0
LINE
8
_2-5_建具
6
CONTINUOUS
62
3
10
5544.500000
20
2347.500000
30
0.000000
11
5375.500000
21
2347.500000
31
0.000000
39
0.000000
0
LINE
8
_2-5_建具
6
CONTINUOUS
62
3
10
5455.000000
20
3100.000000
30
0.000000
11
5455.000000
21
3095.000000
31
0.000000
39
0.000000
0
LINE
8
_2-5_建具
6
CONTINUOUS
62
3
10
5455.000000
20
3095.000000
30
0.000000
11
5460.000000
21
3095.000000
31
0.000000
39
0.000000
0
LINE
8
_2-5_建具
6
CONTINUOUS
62
3
10
5460.000000
20
3095.000000
30
0.000000
11
5460.000000
21
3085.000000
31
0.000000
39
0.000000
0
LINE
8
_2-5_建具
6
CONTINUOUS
62
3
10
5460.000000
20
3085.000000
30
0.000000
11
5440.000000
21
3085.000000
31
0.000000
39
0.000000
0
LINE
8
_2-5_建具
6
CONTINUOUS
62
3
10
5440.000000
20
3085.000000
30
0.000000
11
5440.000000
21
3095.000000
31
0.000000
39
0.000000
0
LINE
8
_2-5_建具
6
CONTINUOUS
62
3
10
5440.000000
20
3095.000000
30
0.000000
11
5445.000000
21
3095.000000
31
0.000000
39
0.000000
0
LINE
8
_2-5_建具
6
CONTINUOUS
62
3
10
5445.000000
20
3095.000000
30
0.000000
11
5445.000000
21
3100.000000
31
0.000000
39
0.000000
0
LINE
8
_2-5_建具
6
CONTINUOUS
62
3
10
5445.000000
20
3100.000000
30
0.000000
11
5455.000000
21
3100.000000
31
0.000000
39
0.000000
0
LINE
8
_2-5_建具
6
CONTINUOUS
62
3
10
5445.000000
20
2372.500000
30
0.000000
11
5445.000000
21
2377.500000
31
0.000000
39
0.000000
0
LINE
8
_2-5_建具
6
CONTINUOUS
62
3
10
5445.000000
20
2377.500000
30
0.000000
11
5440.000000
21
2377.500000
31
0.000000
39
0.000000
0
LINE
8
_2-5_建具
6
CONTINUOUS
62
3
10
5440.000000
20
2377.500000
30
0.000000
11
5440.000000
21
2387.500000
31
0.000000
39
0.000000
0
LINE
8
_2-5_建具
6
CONTINUOUS
62
3
10
5440.000000
20
2387.500000
30
0.000000
11
5460.000000
21
2387.500000
31
0.000000
39
0.000000
0
LINE
8
_2-5_建具
6
CONTINUOUS
62
3
10
5460.000000
20
2387.500000
30
0.000000
11
5460.000000
21
2377.500000
31
0.000000
39
0.000000
0
LINE
8
_2-5_建具
6
CONTINUOUS
62
3
10
5460.000000
20
2377.500000
30
0.000000
11
5455.000000
21
2377.500000
31
0.000000
39
0.000000
0
LINE
8
_2-5_建具
6
CONTINUOUS
62
3
10
5455.000000
20
2377.500000
30
0.000000
11
5455.000000
21
2372.500000
31
0.000000
39
0.000000
0
LINE
8
_2-5_建具
6
CONTINUOUS
62
3
10
5455.000000
20
2372.500000
30
0.000000
11
5445.000000
21
2372.500000
31
0.000000
39
0.000000
0
LINE
8
_2-5_建具
6
CONTINUOUS
62
7
10
4535.500000
20
3125.000000
30
0.000000
11
4535.500000
21
3855.000000
31
0.000000
39
0.000000
0
LINE
8
_2-5_建具
6
CONTINUOUS
62
7
10
4465.500000
20
2377.500000
30
0.000000
11
4465.500000
21
3855.000000
31
0.000000
39
0.000000
0
LINE
8
_2-5_建具
6
CONTINUOUS
62
7
10
4545.500000
20
2377.500000
30
0.000000
11
4545.500000
21
3095.000000
31
0.000000
39
0.000000
0
LINE
8
_2-5_建具
6
CONTINUOUS
62
7
10
4485.500000
20
2377.500000
30
0.000000
11
4485.500000
21
3125.000000
31
0.000000
39
0.000000
0
LINE
8
_2-5_建具
6
CONTINUOUS
62
7
10
4485.500000
20
3125.000000
30
0.000000
11
4520.500000
21
3125.000000
31
0.000000
39
0.000000
0
LINE
8
_2-5_建具
6
CONTINUOUS
62
7
10
4520.500000
20
3125.000000
30
0.000000
11
4520.500000
21
2377.500000
31
0.000000
39
0.000000
0
LINE
8
_2-5_建具
6
CONTINUOUS
62
7
10
4230.500000
20
2731.250000
30
0.000000
11
4830.500000
21
2731.250000
31
0.000000
39
0.000000
0
LINE
8
_2-5_建具
6
CONTINUOUS
62
7
10
4230.500000
20
2731.250000
30
0.000000
11
4350.500000
21
2671.250000
31
0.000000
39
0.000000
0
LINE
8
_2-5_建具
6
CONTINUOUS
62
7
10
4830.500000
20
2731.250000
30
0.000000
11
4710.500000
21
2791.250000
31
0.000000
39
0.000000
0
LINE
8
_2-5_建具
6
DASHED2
62
3
10
4503.000000
20
3125.000000
30
0.000000
11
4503.000000
21
3842.500000
31
0.000000
39
0.000000
0
LINE
8
_2-5_建具
6
CONTINUOUS
62
3
10
4634.500000
20
2347.500000
30
0.000000
11
4634.500000
21
2377.500000
31
0.000000
39
0.000000
0
LINE
8
_2-5_建具
6
CONTINUOUS
62
3
10
4634.500000
20
2377.500000
30
0.000000
11
4465.500000
21
2377.500000
31
0.000000
39
0.000000
0
LINE
8
_2-5_建具
6
CONTINUOUS
62
3
10
4465.500000
20
2377.500000
30
0.000000
11
4465.500000
21
2347.500000
31
0.000000
39
0.000000
0
LINE
8
_2-5_建具
6
CONTINUOUS
62
3
10
4465.500000
20
2347.500000
30
0.000000
11
4634.500000
21
2347.500000
31
0.000000
39
0.000000
0
LINE
8
_2-5_建具
6
CONTINUOUS
62
3
10
4634.500000
20
3125.000000
30
0.000000
11
4634.500000
21
3095.000000
31
0.000000
39
0.000000
0
LINE
8
_2-5_建具
6
CONTINUOUS
62
3
10
4634.500000
20
3095.000000
30
0.000000
11
4530.500000
21
3095.000000
31
0.000000
39
0.000000
0
LINE
8
_2-5_建具
6
CONTINUOUS
62
3
10
4530.500000
20
3095.000000
30
0.000000
11
4530.500000
21
3125.000000
31
0.000000
39
0.000000
0
LINE
8
_2-5_建具
6
CONTINUOUS
62
3
10
4530.500000
20
3125.000000
30
0.000000
11
4634.500000
21
3125.000000
31
0.000000
39
0.000000
0
LINE
8
_2-5_建具
6
CONTINUOUS
62
3
10
4549.500000
20
3885.000000
30
0.000000
11
4549.500000
21
3855.000000
31
0.000000
39
0.000000
0
LINE
8
_2-5_建具
6
CONTINUOUS
62
3
10
4549.500000
20
3855.000000
30
0.000000
11
4465.500000
21
3855.000000
31
0.000000
39
0.000000
0
LINE
8
_2-5_建具
6
CONTINUOUS
62
3
10
4465.500000
20
3855.000000
30
0.000000
11
4465.500000
21
3885.000000
31
0.000000
39
0.000000
0
LINE
8
_2-5_建具
6
CONTINUOUS
62
3
10
4465.500000
20
3885.000000
30
0.000000
11
4549.500000
21
3885.000000
31
0.000000
39
0.000000
0
LINE
8
_2-2_柱
6
CONTINUOUS
62
2
10
2670.000000
20
970.000000
30
0.000000
11
2670.000000
21
850.000000
31
0.000000
39
0.000000
0
LINE
8
_2-2_柱
6
CONTINUOUS
62
2
10
2670.000000
20
850.000000
30
0.000000
11
2790.000000
21
850.000000
31
0.000000
39
0.000000
0
LINE
8
_2-2_柱
6
CONTINUOUS
62
2
10
2790.000000
20
850.000000
30
0.000000
11
2790.000000
21
970.000000
31
0.000000
39
0.000000
0
LINE
8
_2-2_柱
6
CONTINUOUS
62
2
10
2790.000000
20
970.000000
30
0.000000
11
2670.000000
21
970.000000
31
0.000000
39
0.000000
0
LINE
8
_2-2_柱
6
CONTINUOUS
62
7
10
2670.000000
20
970.000000
30
0.000000
11
2790.000000
21
850.000000
31
0.000000
39
0.000000
0
LINE
8
_2-2_柱
6
CONTINUOUS
62
7
10
2670.000000
20
850.000000
30
0.000000
11
2790.000000
21
970.000000
31
0.000000
39
0.000000
0
LINE
8
_2-2_柱
6
CONTINUOUS
62
2
10
5400.000000
20
970.000000
30
0.000000
11
5400.000000
21
850.000000
31
0.000000
39
0.000000
0
LINE
8
_2-2_柱
6
CONTINUOUS
62
2
10
5400.000000
20
850.000000
30
0.000000
11
5520.000000
21
850.000000
31
0.000000
39
0.000000
0
LINE
8
_2-2_柱
6
CONTINUOUS
62
2
10
5520.000000
20
850.000000
30
0.000000
11
5520.000000
21
970.000000
31
0.000000
39
0.000000
0
LINE
8
_2-2_柱
6
CONTINUOUS
62
2
10
5520.000000
20
970.000000
30
0.000000
11
5400.000000
21
970.000000
31
0.000000
39
0.000000
0
LINE
8
_2-2_柱
6
CONTINUOUS
62
7
10
5400.000000
20
970.000000
30
0.000000
11
5520.000000
21
850.000000
31
0.000000
39
0.000000
0
LINE
8
_2-2_柱
6
CONTINUOUS
62
7
10
5400.000000
20
850.000000
30
0.000000
11
5520.000000
21
970.000000
31
0.000000
39
0.000000
0
LINE
8
_2-2_柱
6
CONTINUOUS
62
2
10
6310.000000
20
970.000000
30
0.000000
11
6310.000000
21
850.000000
31
0.000000
39
0.000000
0
LINE
8
_2-2_柱
6
CONTINUOUS
62
2
10
6310.000000
20
850.000000
30
0.000000
11
6430.000000
21
850.000000
31
0.000000
39
0.000000
0
LINE
8
_2-2_柱
6
CONTINUOUS
62
2
10
6430.000000
20
850.000000
30
0.000000
11
6430.000000
21
970.000000
31
0.000000
39
0.000000
0
LINE
8
_2-2_柱
6
CONTINUOUS
62
2
10
6430.000000
20
970.000000
30
0.000000
11
6310.000000
21
970.000000
31
0.000000
39
0.000000
0
LINE
8
_2-2_柱
6
CONTINUOUS
62
7
10
6310.000000
20
970.000000
30
0.000000
11
6430.000000
21
850.000000
31
0.000000
39
0.000000
0
LINE
8
_2-2_柱
6
CONTINUOUS
62
7
10
6310.000000
20
850.000000
30
0.000000
11
6430.000000
21
970.000000
31
0.000000
39
0.000000
0
LINE
8
_2-2_柱
6
CONTINUOUS
62
2
10
6310.000000
20
5520.000000
30
0.000000
11
6310.000000
21
5400.000000
31
0.000000
39
0.000000
0
LINE
8
_2-2_柱
6
CONTINUOUS
62
2
10
6310.000000
20
5400.000000
30
0.000000
11
6430.000000
21
5400.000000
31
0.000000
39
0.000000
0
LINE
8
_2-2_柱
6
CONTINUOUS
62
2
10
6430.000000
20
5400.000000
30
0.000000
11
6430.000000
21
5520.000000
31
0.000000
39
0.000000
0
LINE
8
_2-2_柱
6
CONTINUOUS
62
2
10
6430.000000
20
5520.000000
30
0.000000
11
6310.000000
21
5520.000000
31
0.000000
39
0.000000
0
LINE
8
_2-2_柱
6
CONTINUOUS
62
7
10
6310.000000
20
5520.000000
30
0.000000
11
6430.000000
21
5400.000000
31
0.000000
39
0.000000
0
LINE
8
_2-2_柱
6
CONTINUOUS
62
7
10
6310.000000
20
5400.000000
30
0.000000
11
6430.000000
21
5520.000000
31
0.000000
39
0.000000
0
LINE
8
_2-2_柱
6
CONTINUOUS
62
2
10
9040.000000
20
4610.000000
30
0.000000
11
9040.000000
21
4490.000000
31
0.000000
39
0.000000
0
LINE
8
_2-2_柱
6
CONTINUOUS
62
2
10
9040.000000
20
4490.000000
30
0.000000
11
9160.000000
21
4490.000000
31
0.000000
39
0.000000
0
LINE
8
_2-2_柱
6
CONTINUOUS
62
2
10
9160.000000
20
4490.000000
30
0.000000
11
9160.000000
21
4610.000000
31
0.000000
39
0.000000
0
LINE
8
_2-2_柱
6
CONTINUOUS
62
2
10
9160.000000
20
4610.000000
30
0.000000
11
9040.000000
21
4610.000000
31
0.000000
39
0.000000
0
LINE
8
_2-2_柱
6
CONTINUOUS
62
7
10
9040.000000
20
4610.000000
30
0.000000
11
9160.000000
21
4490.000000
31
0.000000
39
0.000000
0
LINE
8
_2-2_柱
6
CONTINUOUS
62
7
10
9040.000000
20
4490.000000
30
0.000000
11
9160.000000
21
4610.000000
31
0.000000
39
0.000000
0
LINE
8
_2-2_柱
6
CONTINUOUS
62
2
10
9040.000000
20
3700.000000
30
0.000000
11
9040.000000
21
3580.000000
31
0.000000
39
0.000000
0
LINE
8
_2-2_柱
6
CONTINUOUS
62
2
10
9040.000000
20
3580.000000
30
0.000000
11
9160.000000
21
3580.000000
31
0.000000
39
0.000000
0
LINE
8
_2-2_柱
6
CONTINUOUS
62
2
10
9160.000000
20
3580.000000
30
0.000000
11
9160.000000
21
3700.000000
31
0.000000
39
0.000000
0
LINE
8
_2-2_柱
6
CONTINUOUS
62
2
10
9160.000000
20
3700.000000
30
0.000000
11
9040.000000
21
3700.000000
31
0.000000
39
0.000000
0
LINE
8
_2-2_柱
6
CONTINUOUS
62
7
10
9040.000000
20
3700.000000
30
0.000000
11
9160.000000
21
3580.000000
31
0.000000
39
0.000000
0
LINE
8
_2-2_柱
6
CONTINUOUS
62
7
10
9040.000000
20
3580.000000
30
0.000000
11
9160.000000
21
3700.000000
31
0.000000
39
0.000000
0
LINE
8
_2-2_柱
6
CONTINUOUS
62
2
10
9040.000000
20
1880.000000
30
0.000000
11
9040.000000
21
1760.000000
31
0.000000
39
0.000000
0
LINE
8
_2-2_柱
6
CONTINUOUS
62
2
10
9040.000000
20
1760.000000
30
0.000000
11
9160.000000
21
1760.000000
31
0.000000
39
0.000000
0
LINE
8
_2-2_柱
6
CONTINUOUS
62
2
10
9160.000000
20
1760.000000
30
0.000000
11
9160.000000
21
1880.000000
31
0.000000
39
0.000000
0
LINE
8
_2-2_柱
6
CONTINUOUS
62
2
10
9160.000000
20
1880.000000
30
0.000000
11
9040.000000
21
1880.000000
31
0.000000
39
0.000000
0
LINE
8
_2-2_柱
6
CONTINUOUS
62
7
10
9040.000000
20
1880.000000
30
0.000000
11
9160.000000
21
1760.000000
31
0.000000
39
0.000000
0
LINE
8
_2-2_柱
6
CONTINUOUS
62
7
10
9040.000000
20
1760.000000
30
0.000000
11
9160.000000
21
1880.000000
31
0.000000
39
0.000000
0
LINE
8
_2-2_柱
6
CONTINUOUS
62
2
10
9040.000000
20
970.000000
30
0.000000
11
9040.000000
21
850.000000
31
0.000000
39
0.000000
0
LINE
8
_2-2_柱
6
CONTINUOUS
62
2
10
9040.000000
20
850.000000
30
0.000000
11
9160.000000
21
850.000000
31
0.000000
39
0.000000
0
LINE
8
_2-2_柱
6
CONTINUOUS
62
2
10
9160.000000
20
850.000000
30
0.000000
11
9160.000000
21
970.000000
31
0.000000
39
0.000000
0
LINE
8
_2-2_柱
6
CONTINUOUS
62
2
10
9160.000000
20
970.000000
30
0.000000
11
9040.000000
21
970.000000
31
0.000000
39
0.000000
0
LINE
8
_2-2_柱
6
CONTINUOUS
62
7
10
9040.000000
20
970.000000
30
0.000000
11
9160.000000
21
850.000000
31
0.000000
39
0.000000
0
LINE
8
_2-2_柱
6
CONTINUOUS
62
7
10
9040.000000
20
850.000000
30
0.000000
11
9160.000000
21
970.000000
31
0.000000
39
0.000000
0
LINE
8
_2-2_柱
6
CONTINUOUS
62
2
10
8130.000000
20
970.000000
30
0.000000
11
8130.000000
21
850.000000
31
0.000000
39
0.000000
0
LINE
8
_2-2_柱
6
CONTINUOUS
62
2
10
8130.000000
20
850.000000
30
0.000000
11
8250.000000
21
850.000000
31
0.000000
39
0.000000
0
LINE
8
_2-2_柱
6
CONTINUOUS
62
2
10
8250.000000
20
850.000000
30
0.000000
11
8250.000000
21
970.000000
31
0.000000
39
0.000000
0
LINE
8
_2-2_柱
6
CONTINUOUS
62
2
10
8250.000000
20
970.000000
30
0.000000
11
8130.000000
21
970.000000
31
0.000000
39
0.000000
0
LINE
8
_2-2_柱
6
CONTINUOUS
62
7
10
8130.000000
20
970.000000
30
0.000000
11
8250.000000
21
850.000000
31
0.000000
39
0.000000
0
LINE
8
_2-2_柱
6
CONTINUOUS
62
7
10
8130.000000
20
850.000000
30
0.000000
11
8250.000000
21
970.000000
31
0.000000
39
0.000000
0
LINE
8
_2-2_柱
6
CONTINUOUS
62
2
10
7220.000000
20
5520.000000
30
0.000000
11
7220.000000
21
5400.000000
31
0.000000
39
0.000000
0
LINE
8
_2-2_柱
6
CONTINUOUS
62
2
10
7220.000000
20
5400.000000
30
0.000000
11
7340.000000
21
5400.000000
31
0.000000
39
0.000000
0
LINE
8
_2-2_柱
6
CONTINUOUS
62
2
10
7340.000000
20
5400.000000
30
0.000000
11
7340.000000
21
5520.000000
31
0.000000
39
0.000000
0
LINE
8
_2-2_柱
6
CONTINUOUS
62
2
10
7340.000000
20
5520.000000
30
0.000000
11
7220.000000
21
5520.000000
31
0.000000
39
0.000000
0
LINE
8
_2-2_柱
6
CONTINUOUS
62
7
10
7220.000000
20
5520.000000
30
0.000000
11
7340.000000
21
5400.000000
31
0.000000
39
0.000000
0
LINE
8
_2-2_柱
6
CONTINUOUS
62
7
10
7220.000000
20
5400.000000
30
0.000000
11
7340.000000
21
5520.000000
31
0.000000
39
0.000000
0
LINE
8
_2-2_柱
6
CONTINUOUS
62
2
10
6310.000000
20
4610.000000
30
0.000000
11
6310.000000
21
4490.000000
31
0.000000
39
0.000000
0
LINE
8
_2-2_柱
6
CONTINUOUS
62
2
10
6310.000000
20
4490.000000
30
0.000000
11
6430.000000
21
4490.000000
31
0.000000
39
0.000000
0
LINE
8
_2-2_柱
6
CONTINUOUS
62
2
10
6430.000000
20
4490.000000
30
0.000000
11
6430.000000
21
4610.000000
31
0.000000
39
0.000000
0
LINE
8
_2-2_柱
6
CONTINUOUS
62
2
10
6430.000000
20
4610.000000
30
0.000000
11
6310.000000
21
4610.000000
31
0.000000
39
0.000000
0
LINE
8
_2-2_柱
6
CONTINUOUS
62
7
10
6310.000000
20
4610.000000
30
0.000000
11
6430.000000
21
4490.000000
31
0.000000
39
0.000000
0
LINE
8
_2-2_柱
6
CONTINUOUS
62
7
10
6310.000000
20
4490.000000
30
0.000000
11
6430.000000
21
4610.000000
31
0.000000
39
0.000000
0
LINE
8
_2-2_柱
6
CONTINUOUS
62
2
10
5400.000000
20
5520.000000
30
0.000000
11
5400.000000
21
5400.000000
31
0.000000
39
0.000000
0
LINE
8
_2-2_柱
6
CONTINUOUS
62
2
10
5400.000000
20
5400.000000
30
0.000000
11
5520.000000
21
5400.000000
31
0.000000
39
0.000000
0
LINE
8
_2-2_柱
6
CONTINUOUS
62
2
10
5520.000000
20
5400.000000
30
0.000000
11
5520.000000
21
5520.000000
31
0.000000
39
0.000000
0
LINE
8
_2-2_柱
6
CONTINUOUS
62
2
10
5520.000000
20
5520.000000
30
0.000000
11
5400.000000
21
5520.000000
31
0.000000
39
0.000000
0
LINE
8
_2-2_柱
6
CONTINUOUS
62
7
10
5400.000000
20
5520.000000
30
0.000000
11
5520.000000
21
5400.000000
31
0.000000
39
0.000000
0
LINE
8
_2-2_柱
6
CONTINUOUS
62
7
10
5400.000000
20
5400.000000
30
0.000000
11
5520.000000
21
5520.000000
31
0.000000
39
0.000000
0
LINE
8
_2-2_柱
6
CONTINUOUS
62
2
10
1760.000000
20
3700.000000
30
0.000000
11
1760.000000
21
3580.000000
31
0.000000
39
0.000000
0
LINE
8
_2-2_柱
6
CONTINUOUS
62
2
10
1760.000000
20
3580.000000
30
0.000000
11
1880.000000
21
3580.000000
31
0.000000
39
0.000000
0
LINE
8
_2-2_柱
6
CONTINUOUS
62
2
10
1880.000000
20
3580.000000
30
0.000000
11
1880.000000
21
3700.000000
31
0.000000
39
0.000000
0
LINE
8
_2-2_柱
6
CONTINUOUS
62
2
10
1880.000000
20
3700.000000
30
0.000000
11
1760.000000
21
3700.000000
31
0.000000
39
0.000000
0
LINE
8
_2-2_柱
6
CONTINUOUS
62
7
10
1760.000000
20
3700.000000
30
0.000000
11
1880.000000
21
3580.000000
31
0.000000
39
0.000000
0
LINE
8
_2-2_柱
6
CONTINUOUS
62
7
10
1760.000000
20
3580.000000
30
0.000000
11
1880.000000
21
3700.000000
31
0.000000
39
0.000000
0
LINE
8
_2-2_柱
6
CONTINUOUS
62
2
10
1760.000000
20
1880.000000
30
0.000000
11
1760.000000
21
1760.000000
31
0.000000
39
0.000000
0
LINE
8
_2-2_柱
6
CONTINUOUS
62
2
10
1760.000000
20
1760.000000
30
0.000000
11
1880.000000
21
1760.000000
31
0.000000
39
0.000000
0
LINE
8
_2-2_柱
6
CONTINUOUS
62
2
10
1880.000000
20
1760.000000
30
0.000000
11
1880.000000
21
1880.000000
31
0.000000
39
0.000000
0
LINE
8
_2-2_柱
6
CONTINUOUS
62
2
10
1880.000000
20
1880.000000
30
0.000000
11
1760.000000
21
1880.000000
31
0.000000
39
0.000000
0
LINE
8
_2-2_柱
6
CONTINUOUS
62
7
10
1760.000000
20
1880.000000
30
0.000000
11
1880.000000
21
1760.000000
31
0.000000
39
0.000000
0
LINE
8
_2-2_柱
6
CONTINUOUS
62
7
10
1760.000000
20
1760.000000
30
0.000000
11
1880.000000
21
1880.000000
31
0.000000
39
0.000000
0
LINE
8
_2-2_柱
6
CONTINUOUS
62
2
10
1760.000000
20
5520.000000
30
0.000000
11
1760.000000
21
5400.000000
31
0.000000
39
0.000000
0
LINE
8
_2-2_柱
6
CONTINUOUS
62
2
10
1760.000000
20
5400.000000
30
0.000000
11
1880.000000
21
5400.000000
31
0.000000
39
0.000000
0
LINE
8
_2-2_柱
6
CONTINUOUS
62
2
10
1880.000000
20
5400.000000
30
0.000000
11
1880.000000
21
5520.000000
31
0.000000
39
0.000000
0
LINE
8
_2-2_柱
6
CONTINUOUS
62
2
10
1880.000000
20
5520.000000
30
0.000000
11
1760.000000
21
5520.000000
31
0.000000
39
0.000000
0
LINE
8
_2-2_柱
6
CONTINUOUS
62
7
10
1760.000000
20
5520.000000
30
0.000000
11
1880.000000
21
5400.000000
31
0.000000
39
0.000000
0
LINE
8
_2-2_柱
6
CONTINUOUS
62
7
10
1760.000000
20
5400.000000
30
0.000000
11
1880.000000
21
5520.000000
31
0.000000
39
0.000000
0
LINE
8
_2-2_柱
6
CONTINUOUS
62
2
10
4490.000000
20
5520.000000
30
0.000000
11
4490.000000
21
5400.000000
31
0.000000
39
0.000000
0
LINE
8
_2-2_柱
6
CONTINUOUS
62
2
10
4490.000000
20
5400.000000
30
0.000000
11
4610.000000
21
5400.000000
31
0.000000
39
0.000000
0
LINE
8
_2-2_柱
6
CONTINUOUS
62
2
10
4610.000000
20
5400.000000
30
0.000000
11
4610.000000
21
5520.000000
31
0.000000
39
0.000000
0
LINE
8
_2-2_柱
6
CONTINUOUS
62
2
10
4610.000000
20
5520.000000
30
0.000000
11
4490.000000
21
5520.000000
31
0.000000
39
0.000000
0
LINE
8
_2-2_柱
6
CONTINUOUS
62
7
10
4490.000000
20
5520.000000
30
0.000000
11
4610.000000
21
5400.000000
31
0.000000
39
0.000000
0
LINE
8
_2-2_柱
6
CONTINUOUS
62
7
10
4490.000000
20
5400.000000
30
0.000000
11
4610.000000
21
5520.000000
31
0.000000
39
0.000000
0
LINE
8
_2-2_柱
6
CONTINUOUS
62
2
10
4490.000000
20
4610.000000
30
0.000000
11
4490.000000
21
4490.000000
31
0.000000
39
0.000000
0
LINE
8
_2-2_柱
6
CONTINUOUS
62
2
10
4490.000000
20
4490.000000
30
0.000000
11
4610.000000
21
4490.000000
31
0.000000
39
0.000000
0
LINE
8
_2-2_柱
6
CONTINUOUS
62
2
10
4610.000000
20
4490.000000
30
0.000000
11
4610.000000
21
4610.000000
31
0.000000
39
0.000000
0
LINE
8
_2-2_柱
6
CONTINUOUS
62
2
10
4610.000000
20
4610.000000
30
0.000000
11
4490.000000
21
4610.000000
31
0.000000
39
0.000000
0
LINE
8
_2-2_柱
6
CONTINUOUS
62
7
10
4490.000000
20
4610.000000
30
0.000000
11
4610.000000
21
4490.000000
31
0.000000
39
0.000000
0
LINE
8
_2-2_柱
6
CONTINUOUS
62
7
10
4490.000000
20
4490.000000
30
0.000000
11
4610.000000
21
4610.000000
31
0.000000
39
0.000000
0
LINE
8
_2-2_柱
6
CONTINUOUS
62
2
10
1760.000000
20
4610.000000
30
0.000000
11
1760.000000
21
4490.000000
31
0.000000
39
0.000000
0
LINE
8
_2-2_柱
6
CONTINUOUS
62
2
10
1760.000000
20
4490.000000
30
0.000000
11
1880.000000
21
4490.000000
31
0.000000
39
0.000000
0
LINE
8
_2-2_柱
6
CONTINUOUS
62
2
10
1880.000000
20
4490.000000
30
0.000000
11
1880.000000
21
4610.000000
31
0.000000
39
0.000000
0
LINE
8
_2-2_柱
6
CONTINUOUS
62
2
10
1880.000000
20
4610.000000
30
0.000000
11
1760.000000
21
4610.000000
31
0.000000
39
0.000000
0
LINE
8
_2-2_柱
6
CONTINUOUS
62
7
10
1760.000000
20
4610.000000
30
0.000000
11
1880.000000
21
4490.000000
31
0.000000
39
0.000000
0
LINE
8
_2-2_柱
6
CONTINUOUS
62
7
10
1760.000000
20
4490.000000
30
0.000000
11
1880.000000
21
4610.000000
31
0.000000
39
0.000000
0
LINE
8
_2-2_柱
6
CONTINUOUS
62
2
10
4490.000000
20
970.000000
30
0.000000
11
4490.000000
21
850.000000
31
0.000000
39
0.000000
0
LINE
8
_2-2_柱
6
CONTINUOUS
62
2
10
4490.000000
20
850.000000
30
0.000000
11
4610.000000
21
850.000000
31
0.000000
39
0.000000
0
LINE
8
_2-2_柱
6
CONTINUOUS
62
2
10
4610.000000
20
850.000000
30
0.000000
11
4610.000000
21
970.000000
31
0.000000
39
0.000000
0
LINE
8
_2-2_柱
6
CONTINUOUS
62
2
10
4610.000000
20
970.000000
30
0.000000
11
4490.000000
21
970.000000
31
0.000000
39
0.000000
0
LINE
8
_2-2_柱
6
CONTINUOUS
62
7
10
4490.000000
20
970.000000
30
0.000000
11
4610.000000
21
850.000000
31
0.000000
39
0.000000
0
LINE
8
_2-2_柱
6
CONTINUOUS
62
7
10
4490.000000
20
850.000000
30
0.000000
11
4610.000000
21
970.000000
31
0.000000
39
0.000000
0
LINE
8
_2-2_柱
6
CONTINUOUS
62
2
10
4490.000000
20
2335.000000
30
0.000000
11
4490.000000
21
2215.000000
31
0.000000
39
0.000000
0
LINE
8
_2-2_柱
6
CONTINUOUS
62
2
10
4490.000000
20
2215.000000
30
0.000000
11
4610.000000
21
2215.000000
31
0.000000
39
0.000000
0
LINE
8
_2-2_柱
6
CONTINUOUS
62
2
10
4610.000000
20
2215.000000
30
0.000000
11
4610.000000
21
2335.000000
31
0.000000
39
0.000000
0
LINE
8
_2-2_柱
6
CONTINUOUS
62
2
10
4610.000000
20
2335.000000
30
0.000000
11
4490.000000
21
2335.000000
31
0.000000
39
0.000000
0
LINE
8
_2-2_柱
6
CONTINUOUS
62
7
10
4490.000000
20
2335.000000
30
0.000000
11
4610.000000
21
2215.000000
31
0.000000
39
0.000000
0
LINE
8
_2-2_柱
6
CONTINUOUS
62
7
10
4490.000000
20
2215.000000
30
0.000000
11
4610.000000
21
2335.000000
31
0.000000
39
0.000000
0
LINE
8
_2-2_柱
6
CONTINUOUS
62
2
10
5400.000000
20
2335.000000
30
0.000000
11
5400.000000
21
2215.000000
31
0.000000
39
0.000000
0
LINE
8
_2-2_柱
6
CONTINUOUS
62
2
10
5400.000000
20
2215.000000
30
0.000000
11
5520.000000
21
2215.000000
31
0.000000
39
0.000000
0
LINE
8
_2-2_柱
6
CONTINUOUS
62
2
10
5520.000000
20
2215.000000
30
0.000000
11
5520.000000
21
2335.000000
31
0.000000
39
0.000000
0
LINE
8
_2-2_柱
6
CONTINUOUS
62
2
10
5520.000000
20
2335.000000
30
0.000000
11
5400.000000
21
2335.000000
31
0.000000
39
0.000000
0
LINE
8
_2-2_柱
6
CONTINUOUS
62
7
10
5400.000000
20
2335.000000
30
0.000000
11
5520.000000
21
2215.000000
31
0.000000
39
0.000000
0
LINE
8
_2-2_柱
6
CONTINUOUS
62
7
10
5400.000000
20
2215.000000
30
0.000000
11
5520.000000
21
2335.000000
31
0.000000
39
0.000000
0
LINE
8
_2-2_柱
6
CONTINUOUS
62
2
10
5400.000000
20
3245.000000
30
0.000000
11
5400.000000
21
3125.000000
31
0.000000
39
0.000000
0
LINE
8
_2-2_柱
6
CONTINUOUS
62
2
10
5400.000000
20
3125.000000
30
0.000000
11
5520.000000
21
3125.000000
31
0.000000
39
0.000000
0
LINE
8
_2-2_柱
6
CONTINUOUS
62
2
10
5520.000000
20
3125.000000
30
0.000000
11
5520.000000
21
3245.000000
31
0.000000
39
0.000000
0
LINE
8
_2-2_柱
6
CONTINUOUS
62
2
10
5520.000000
20
3245.000000
30
0.000000
11
5400.000000
21
3245.000000
31
0.000000
39
0.000000
0
LINE
8
_2-2_柱
6
CONTINUOUS
62
7
10
5400.000000
20
3245.000000
30
0.000000
11
5520.000000
21
3125.000000
31
0.000000
39
0.000000
0
LINE
8
_2-2_柱
6
CONTINUOUS
62
7
10
5400.000000
20
3125.000000
30
0.000000
11
5520.000000
21
3245.000000
31
0.000000
39
0.000000
0
LINE
8
_2-2_柱
6
CONTINUOUS
62
2
10
5400.000000
20
4610.000000
30
0.000000
11
5400.000000
21
4490.000000
31
0.000000
39
0.000000
0
LINE
8
_2-2_柱
6
CONTINUOUS
62
2
10
5400.000000
20
4490.000000
30
0.000000
11
5520.000000
21
4490.000000
31
0.000000
39
0.000000
0
LINE
8
_2-2_柱
6
CONTINUOUS
62
2
10
5520.000000
20
4490.000000
30
0.000000
11
5520.000000
21
4610.000000
31
0.000000
39
0.000000
0
LINE
8
_2-2_柱
6
CONTINUOUS
62
2
10
5520.000000
20
4610.000000
30
0.000000
11
5400.000000
21
4610.000000
31
0.000000
39
0.000000
0
LINE
8
_2-2_柱
6
CONTINUOUS
62
7
10
5400.000000
20
4610.000000
30
0.000000
11
5520.000000
21
4490.000000
31
0.000000
39
0.000000
0
LINE
8
_2-2_柱
6
CONTINUOUS
62
7
10
5400.000000
20
4490.000000
30
0.000000
11
5520.000000
21
4610.000000
31
0.000000
39
0.000000
0
LINE
8
_2-2_柱
6
CONTINUOUS
62
2
10
1760.000000
20
970.000000
30
0.000000
11
1760.000000
21
850.000000
31
0.000000
39
0.000000
0
LINE
8
_2-2_柱
6
CONTINUOUS
62
2
10
1760.000000
20
850.000000
30
0.000000
11
1880.000000
21
850.000000
31
0.000000
39
0.000000
0
LINE
8
_2-2_柱
6
CONTINUOUS
62
2
10
1880.000000
20
850.000000
30
0.000000
11
1880.000000
21
970.000000
31
0.000000
39
0.000000
0
LINE
8
_2-2_柱
6
CONTINUOUS
62
2
10
1880.000000
20
970.000000
30
0.000000
11
1760.000000
21
970.000000
31
0.000000
39
0.000000
0
LINE
8
_2-2_柱
6
CONTINUOUS
62
7
10
1760.000000
20
970.000000
30
0.000000
11
1880.000000
21
850.000000
31
0.000000
39
0.000000
0
LINE
8
_2-2_柱
6
CONTINUOUS
62
7
10
1760.000000
20
850.000000
30
0.000000
11
1880.000000
21
970.000000
31
0.000000
39
0.000000
0
LINE
8
_2-2_柱
6
CONTINUOUS
62
2
10
5400.000000
20
3700.000000
30
0.000000
11
5400.000000
21
3580.000000
31
0.000000
39
0.000000
0
LINE
8
_2-2_柱
6
CONTINUOUS
62
2
10
5400.000000
20
3580.000000
30
0.000000
11
5520.000000
21
3580.000000
31
0.000000
39
0.000000
0
LINE
8
_2-2_柱
6
CONTINUOUS
62
2
10
5520.000000
20
3580.000000
30
0.000000
11
5520.000000
21
3700.000000
31
0.000000
39
0.000000
0
LINE
8
_2-2_柱
6
CONTINUOUS
62
2
10
5520.000000
20
3700.000000
30
0.000000
11
5400.000000
21
3700.000000
31
0.000000
39
0.000000
0
LINE
8
_2-2_柱
6
CONTINUOUS
62
7
10
5400.000000
20
3700.000000
30
0.000000
11
5520.000000
21
3580.000000
31
0.000000
39
0.000000
0
LINE
8
_2-2_柱
6
CONTINUOUS
62
7
10
5400.000000
20
3580.000000
30
0.000000
11
5520.000000
21
3700.000000
31
0.000000
39
0.000000
0
LINE
8
_2-2_柱
6
CONTINUOUS
62
2
10
9040.000000
20
5520.000000
30
0.000000
11
9040.000000
21
5400.000000
31
0.000000
39
0.000000
0
LINE
8
_2-2_柱
6
CONTINUOUS
62
2
10
9040.000000
20
5400.000000
30
0.000000
11
9160.000000
21
5400.000000
31
0.000000
39
0.000000
0
LINE
8
_2-2_柱
6
CONTINUOUS
62
2
10
9160.000000
20
5400.000000
30
0.000000
11
9160.000000
21
5520.000000
31
0.000000
39
0.000000
0
LINE
8
_2-2_柱
6
CONTINUOUS
62
2
10
9160.000000
20
5520.000000
30
0.000000
11
9040.000000
21
5520.000000
31
0.000000
39
0.000000
0
LINE
8
_2-2_柱
6
CONTINUOUS
62
7
10
9040.000000
20
5520.000000
30
0.000000
11
9160.000000
21
5400.000000
31
0.000000
39
0.000000
0
LINE
8
_2-2_柱
6
CONTINUOUS
62
7
10
9040.000000
20
5400.000000
30
0.000000
11
9160.000000
21
5520.000000
31
0.000000
39
0.000000
0
LINE
8
_2-2_柱
6
CONTINUOUS
62
2
10
3580.000000
20
5520.000000
30
0.000000
11
3580.000000
21
5400.000000
31
0.000000
39
0.000000
0
LINE
8
_2-2_柱
6
CONTINUOUS
62
2
10
3580.000000
20
5400.000000
30
0.000000
11
3700.000000
21
5400.000000
31
0.000000
39
0.000000
0
LINE
8
_2-2_柱
6
CONTINUOUS
62
2
10
3700.000000
20
5400.000000
30
0.000000
11
3700.000000
21
5520.000000
31
0.000000
39
0.000000
0
LINE
8
_2-2_柱
6
CONTINUOUS
62
2
10
3700.000000
20
5520.000000
30
0.000000
11
3580.000000
21
5520.000000
31
0.000000
39
0.000000
0
LINE
8
_2-2_柱
6
CONTINUOUS
62
7
10
3580.000000
20
5520.000000
30
0.000000
11
3700.000000
21
5400.000000
31
0.000000
39
0.000000
0
LINE
8
_2-2_柱
6
CONTINUOUS
62
7
10
3580.000000
20
5400.000000
30
0.000000
11
3700.000000
21
5520.000000
31
0.000000
39
0.000000
0
LINE
8
_2-D_寸法
6
CONTINUOUS
62
7
10
10465.000000
20
4550.000000
30
0.000000
11
10465.000000
21
910.000000
31
0.000000
39
0.000000
0
LINE
8
_2-D_寸法
6
CONTINUOUS
62
7
10
10465.000000
20
4550.000000
30
0.000000
11
10065.000000
21
4550.000000
31
0.000000
39
0.000000
0
LINE
8
_2-D_寸法
6
CONTINUOUS
62
7
10
10465.000000
20
910.000000
30
0.000000
11
10065.000000
21
910.000000
31
0.000000
39
0.000000
0
LINE
8
_2-D_寸法
6
CONTINUOUS
62
7
10
10465.000000
20
5460.000000
30
0.000000
11
10465.000000
21
4550.000000
31
0.000000
39
0.000000
0
LINE
8
_2-D_寸法
6
CONTINUOUS
62
7
10
10465.000000
20
5460.000000
30
0.000000
11
10065.000000
21
5460.000000
31
0.000000
39
0.000000
0
LINE
8
_2-D_寸法
6
CONTINUOUS
62
7
10
10465.000000
20
4550.000000
30
0.000000
11
10065.000000
21
4550.000000
31
0.000000
39
0.000000
0
LINE
8
_2-D_寸法
6
CONTINUOUS
62
7
10
10920.000000
20
5460.000000
30
0.000000
11
10920.000000
21
910.000000
31
0.000000
39
0.000000
0
LINE
8
_2-D_寸法
6
CONTINUOUS
62
7
10
10920.000000
20
5460.000000
30
0.000000
11
10520.000000
21
5460.000000
31
0.000000
39
0.000000
0
LINE
8
_2-D_寸法
6
CONTINUOUS
62
7
10
10920.000000
20
910.000000
30
0.000000
11
10520.000000
21
910.000000
31
0.000000
39
0.000000
0
LINE
8
_2-D_寸法
6
CONTINUOUS
62
7
10
4550.000000
20
6825.000000
30
0.000000
11
1820.000000
21
6825.000000
31
0.000000
39
0.000000
0
LINE
8
_2-D_寸法
6
CONTINUOUS
62
7
10
4550.000000
20
6825.000000
30
0.000000
11
4550.000000
21
6425.000000
31
0.000000
39
0.000000
0
LINE
8
_2-D_寸法
6
CONTINUOUS
62
7
10
1820.000000
20
6825.000000
30
0.000000
11
1820.000000
21
6425.000000
31
0.000000
39
0.000000
0
LINE
8
_2-D_寸法
6
CONTINUOUS
62
7
10
6370.000000
20
6825.000000
30
0.000000
11
4550.000000
21
6825.000000
31
0.000000
39
0.000000
0
LINE
8
_2-D_寸法
6
CONTINUOUS
62
7
10
6370.000000
20
6825.000000
30
0.000000
11
6370.000000
21
6425.000000
31
0.000000
39
0.000000
0
LINE
8
_2-D_寸法
6
CONTINUOUS
62
7
10
4550.000000
20
6825.000000
30
0.000000
11
4550.000000
21
6425.000000
31
0.000000
39
0.000000
0
LINE
8
_2-D_寸法
6
CONTINUOUS
62
7
10
7280.000000
20
6825.000000
30
0.000000
11
6370.000000
21
6825.000000
31
0.000000
39
0.000000
0
LINE
8
_2-D_寸法
6
CONTINUOUS
62
7
10
7280.000000
20
6825.000000
30
0.000000
11
7280.000000
21
6425.000000
31
0.000000
39
0.000000
0
LINE
8
_2-D_寸法
6
CONTINUOUS
62
7
10
6370.000000
20
6825.000000
30
0.000000
11
6370.000000
21
6425.000000
31
0.000000
39
0.000000
0
LINE
8
_2-D_寸法
6
CONTINUOUS
62
7
10
9100.000000
20
6825.000000
30
0.000000
11
7280.000000
21
6825.000000
31
0.000000
39
0.000000
0
LINE
8
_2-D_寸法
6
CONTINUOUS
62
7
10
9100.000000
20
6825.000000
30
0.000000
11
9100.000000
21
6425.000000
31
0.000000
39
0.000000
0
LINE
8
_2-D_寸法
6
CONTINUOUS
62
7
10
7280.000000
20
6825.000000
30
0.000000
11
7280.000000
21
6425.000000
31
0.000000
39
0.000000
0
LINE
8
_2-D_寸法
6
CONTINUOUS
62
7
10
9100.000000
20
7280.000000
30
0.000000
11
1820.000000
21
7280.000000
31
0.000000
39
0.000000
0
LINE
8
_2-D_寸法
6
CONTINUOUS
62
7
10
9100.000000
20
7280.000000
30
0.000000
11
9100.000000
21
6880.000000
31
0.000000
39
0.000000
0
LINE
8
_2-D_寸法
6
CONTINUOUS
62
7
10
1820.000000
20
7280.000000
30
0.000000
11
1820.000000
21
6880.000000
31
0.000000
39
0.000000
0
LINE
8
_2-D_寸法
6
CONTINUOUS
62
7
10
455.000000
20
4550.000000
30
0.000000
11
455.000000
21
910.000000
31
0.000000
39
0.000000
0
LINE
8
_2-D_寸法
6
CONTINUOUS
62
7
10
455.000000
20
4550.000000
30
0.000000
11
855.000000
21
4550.000000
31
0.000000
39
0.000000
0
LINE
8
_2-D_寸法
6
CONTINUOUS
62
7
10
455.000000
20
910.000000
30
0.000000
11
855.000000
21
910.000000
31
0.000000
39
0.000000
0
LINE
8
_2-D_寸法
6
CONTINUOUS
62
7
10
455.000000
20
5460.000000
30
0.000000
11
455.000000
21
4550.000000
31
0.000000
39
0.000000
0
LINE
8
_2-D_寸法
6
CONTINUOUS
62
7
10
455.000000
20
5460.000000
30
0.000000
11
855.000000
21
5460.000000
31
0.000000
39
0.000000
0
LINE
8
_2-D_寸法
6
CONTINUOUS
62
7
10
455.000000
20
4550.000000
30
0.000000
11
855.000000
21
4550.000000
31
0.000000
39
0.000000
0
LINE
8
_2-D_寸法
6
CONTINUOUS
62
7
10
0.000000
20
5460.000000
30
0.000000
11
0.000000
21
910.000000
31
0.000000
39
0.000000
0
LINE
8
_2-D_寸法
6
CONTINUOUS
62
7
10
0.000000
20
5460.000000
30
0.000000
11
400.000000
21
5460.000000
31
0.000000
39
0.000000
0
LINE
8
_2-D_寸法
6
CONTINUOUS
62
7
10
0.000000
20
910.000000
30
0.000000
11
400.000000
21
910.000000
31
0.000000
39
0.000000
0
LINE
8
_2-D_寸法
6
CONTINUOUS
62
7
10
4550.000000
20
-910.000000
30
0.000000
11
1820.000000
21
-910.000000
31
0.000000
39
0.000000
0
LINE
8
_2-D_寸法
6
CONTINUOUS
62
7
10
4550.000000
20
-910.000000
30
0.000000
11
4550.000000
21
-510.000000
31
0.000000
39
0.000000
0
LINE
8
_2-D_寸法
6
CONTINUOUS
62
7
10
1820.000000
20
-910.000000
30
0.000000
11
1820.000000
21
-510.000000
31
0.000000
39
0.000000
0
LINE
8
_2-D_寸法
6
CONTINUOUS
62
7
10
5460.000000
20
-910.000000
30
0.000000
11
4550.000000
21
-910.000000
31
0.000000
39
0.000000
0
LINE
8
_2-D_寸法
6
CONTINUOUS
62
7
10
5460.000000
20
-910.000000
30
0.000000
11
5460.000000
21
-510.000000
31
0.000000
39
0.000000
0
LINE
8
_2-D_寸法
6
CONTINUOUS
62
7
10
4550.000000
20
-910.000000
30
0.000000
11
4550.000000
21
-510.000000
31
0.000000
39
0.000000
0
LINE
8
_2-D_寸法
6
CONTINUOUS
62
7
10
9100.000000
20
-910.000000
30
0.000000
11
5460.000000
21
-910.000000
31
0.000000
39
0.000000
0
LINE
8
_2-D_寸法
6
CONTINUOUS
62
7
10
9100.000000
20
-910.000000
30
0.000000
11
9100.000000
21
-510.000000
31
0.000000
39
0.000000
0
LINE
8
_2-D_寸法
6
CONTINUOUS
62
7
10
5460.000000
20
-910.000000
30
0.000000
11
5460.000000
21
-510.000000
31
0.000000
39
0.000000
0
LINE
8
_2-D_寸法
6
CONTINUOUS
62
7
10
9100.000000
20
-1365.000000
30
0.000000
11
1820.000000
21
-1365.000000
31
0.000000
39
0.000000
0
LINE
8
_2-D_寸法
6
CONTINUOUS
62
7
10
9100.000000
20
-1365.000000
30
0.000000
11
9100.000000
21
-965.000000
31
0.000000
39
0.000000
0
LINE
8
_2-D_寸法
6
CONTINUOUS
62
7
10
1820.000000
20
-1365.000000
30
0.000000
11
1820.000000
21
-965.000000
31
0.000000
39
0.000000
0
LINE
8
_2-7_家具
6
CONTINUOUS
62
4
10
6672.188467
20
1058.675055
30
0.000000
11
6673.665749
21
1009.484799
31
0.000000
39
0.000000
0
LINE
8
_2-7_家具
6
CONTINUOUS
62
4
10
6668.742177
20
1074.843562
30
0.000000
11
6672.188467
21
1058.675055
31
0.000000
39
0.000000
0
LINE
8
_2-7_家具
6
CONTINUOUS
62
4
10
6662.998127
20
1085.224247
30
0.000000
11
6668.742177
21
1074.843562
31
0.000000
39
0.000000
0
LINE
8
_2-7_家具
6
CONTINUOUS
62
4
10
6653.865390
20
1089.289087
30
0.000000
11
6662.998127
21
1085.224247
31
0.000000
39
0.000000
0
LINE
8
_2-7_家具
6
CONTINUOUS
62
4
10
6644.015436
20
1087.584930
30
0.000000
11
6653.865390
21
1089.289087
31
0.000000
39
0.000000
0
LINE
8
_2-7_家具
6
CONTINUOUS
62
4
10
6636.386674
20
1080.724312
30
0.000000
11
6644.015436
21
1087.584930
31
0.000000
39
0.000000
0
LINE
8
_2-7_家具
6
CONTINUOUS
62
4
10
6632.807619
20
1055.377765
30
0.000000
11
6636.386674
21
1080.724312
31
0.000000
39
0.000000
0
LINE
8
_2-7_家具
6
CONTINUOUS
62
4
10
6631.085879
20
1025.908858
30
0.000000
11
6632.807619
21
1055.377765
31
0.000000
39
0.000000
0
LINE
8
_2-7_家具
6
CONTINUOUS
62
4
10
6626.207265
20
1016.660034
30
0.000000
11
6631.085879
21
1025.908858
31
0.000000
39
0.000000
0
LINE
8
_2-7_家具
6
CONTINUOUS
62
4
10
6617.761537
20
1013.127568
30
0.000000
11
6626.207265
21
1016.660034
31
0.000000
39
0.000000
0
LINE
8
_2-7_家具
6
CONTINUOUS
62
4
10
6608.516405
20
1014.318880
30
0.000000
11
6617.761537
21
1013.127568
31
0.000000
39
0.000000
0
LINE
8
_2-7_家具
6
CONTINUOUS
62
4
10
6601.585893
20
1020.157957
30
0.000000
11
6608.516405
21
1014.318880
31
0.000000
39
0.000000
0
LINE
8
_2-7_家具
6
CONTINUOUS
62
4
10
6598.724756
20
1034.378341
30
0.000000
11
6601.585893
21
1020.157957
31
0.000000
39
0.000000
0
LINE
8
_2-7_家具
6
CONTINUOUS
62
4
10
6597.529865
20
1065.655476
30
0.000000
11
6598.724756
21
1034.378341
31
0.000000
39
0.000000
0
LINE
8
_2-7_家具
6
CONTINUOUS
62
4
10
6594.392659
20
1080.768441
30
0.000000
11
6597.529865
21
1065.655476
31
0.000000
39
0.000000
0
LINE
8
_2-7_家具
6
CONTINUOUS
62
4
10
6586.769517
20
1087.298818
30
0.000000
11
6594.392659
21
1080.768441
31
0.000000
39
0.000000
0
LINE
8
_2-7_家具
6
CONTINUOUS
62
4
10
6576.930101
20
1088.581409
30
0.000000
11
6586.769517
21
1087.298818
31
0.000000
39
0.000000
0
LINE
8
_2-7_家具
6
CONTINUOUS
62
4
10
6567.801578
20
1084.692192
30
0.000000
11
6576.930101
21
1088.581409
31
0.000000
39
0.000000
0
LINE
8
_2-7_家具
6
CONTINUOUS
62
4
10
6562.405247
20
1074.508235
30
0.000000
11
6567.801578
21
1084.692192
31
0.000000
39
0.000000
0
LINE
8
_2-7_家具
6
CONTINUOUS
62
4
10
6559.154945
20
1025.913829
30
0.000000
11
6562.405247
21
1074.508235
31
0.000000
39
0.000000
0
LINE
8
_2-7_家具
6
CONTINUOUS
62
4
10
6554.274926
20
1016.660034
30
0.000000
11
6559.154945
21
1025.913829
31
0.000000
39
0.000000
0
LINE
8
_2-7_家具
6
CONTINUOUS
62
4
10
6545.829199
20
1013.127568
30
0.000000
11
6554.274926
21
1016.660034
31
0.000000
39
0.000000
0
LINE
8
_2-7_家具
6
CONTINUOUS
62
4
10
6536.584067
20
1014.318880
30
0.000000
11
6545.829199
21
1013.127568
31
0.000000
39
0.000000
0
LINE
8
_2-7_家具
6
CONTINUOUS
62
4
10
6529.653555
20
1020.157957
30
0.000000
11
6536.584067
21
1014.318880
31
0.000000
39
0.000000
0
LINE
8
_2-7_家具
6
CONTINUOUS
62
4
10
6526.791013
20
1034.390479
30
0.000000
11
6529.653555
21
1020.157957
31
0.000000
39
0.000000
0
LINE
8
_2-7_家具
6
CONTINUOUS
62
4
10
6524.533995
20
1074.500844
30
0.000000
11
6526.791013
21
1034.390479
31
0.000000
39
0.000000
0
LINE
8
_2-7_家具
6
CONTINUOUS
62
4
10
6519.135557
20
1084.692192
30
0.000000
11
6524.533995
21
1074.500844
31
0.000000
39
0.000000
0
LINE
8
_2-7_家具
6
CONTINUOUS
62
4
10
6510.007035
20
1088.581420
30
0.000000
11
6519.135557
21
1084.692192
31
0.000000
39
0.000000
0
LINE
8
_2-7_家具
6
CONTINUOUS
62
4
10
6500.168320
20
1087.298822
30
0.000000
11
6510.007035
21
1088.581420
31
0.000000
39
0.000000
0
LINE
8
_2-7_家具
6
CONTINUOUS
62
4
10
6492.544476
20
1080.768437
30
0.000000
11
6500.168320
21
1087.298822
31
0.000000
39
0.000000
0
LINE
8
_2-7_家具
6
CONTINUOUS
62
4
10
6489.409378
20
1065.667607
30
0.000000
11
6492.544476
21
1080.768437
31
0.000000
39
0.000000
0
LINE
8
_2-7_家具
6
CONTINUOUS
62
4
10
6487.220499
20
1025.906438
30
0.000000
11
6489.409378
21
1065.667607
31
0.000000
39
0.000000
0
LINE
8
_2-7_家具
6
CONTINUOUS
62
4
10
6482.342588
20
1016.660034
30
0.000000
11
6487.220499
21
1025.906438
31
0.000000
39
0.000000
0
LINE
8
_2-7_家具
6
CONTINUOUS
62
4
10
6473.896860
20
1013.127568
30
0.000000
11
6482.342588
21
1016.660034
31
0.000000
39
0.000000
0
LINE
8
_2-7_家具
6
CONTINUOUS
62
4
10
6464.651728
20
1014.318880
30
0.000000
11
6473.896860
21
1013.127568
31
0.000000
39
0.000000
0
LINE
8
_2-7_家具
6
CONTINUOUS
62
4
10
6457.721216
20
1020.157957
30
0.000000
11
6464.651728
21
1014.318880
31
0.000000
39
0.000000
0
LINE
8
_2-7_家具
6
CONTINUOUS
62
4
10
6454.860079
20
1034.378341
30
0.000000
11
6457.721216
21
1020.157957
31
0.000000
39
0.000000
0
LINE
8
_2-7_家具
6
CONTINUOUS
62
4
10
6453.665187
20
1065.655476
30
0.000000
11
6454.860079
21
1034.378341
31
0.000000
39
0.000000
0
LINE
8
_2-7_家具
6
CONTINUOUS
62
4
10
6450.527982
20
1080.768441
30
0.000000
11
6453.665187
21
1065.655476
31
0.000000
39
0.000000
0
LINE
8
_2-7_家具
6
CONTINUOUS
62
4
10
6442.904840
20
1087.298818
30
0.000000
11
6450.527982
21
1080.768441
31
0.000000
39
0.000000
0
LINE
8
_2-7_家具
6
CONTINUOUS
62
4
10
6433.065423
20
1088.581409
30
0.000000
11
6442.904840
21
1087.298818
31
0.000000
39
0.000000
0
LINE
8
_2-7_家具
6
CONTINUOUS
62
4
10
6423.936900
20
1084.692192
30
0.000000
11
6433.065423
21
1088.581409
31
0.000000
39
0.000000
0
LINE
8
_2-7_家具
6
CONTINUOUS
62
4
10
6418.538463
20
1074.500842
30
0.000000
11
6423.936900
21
1084.692192
31
0.000000
39
0.000000
0
LINE
8
_2-7_家具
6
CONTINUOUS
62
4
10
6416.281445
20
1034.390487
30
0.000000
11
6418.538463
21
1074.500842
31
0.000000
39
0.000000
0
LINE
8
_2-7_家具
6
CONTINUOUS
62
4
10
6413.418903
20
1020.157965
30
0.000000
11
6416.281445
21
1034.390487
31
0.000000
39
0.000000
0
LINE
8
_2-7_家具
6
CONTINUOUS
62
4
10
6406.488391
20
1014.318857
30
0.000000
11
6413.418903
21
1020.157965
31
0.000000
39
0.000000
0
LINE
8
_2-7_家具
6
CONTINUOUS
62
4
10
6397.243259
20
1013.127568
30
0.000000
11
6406.488391
21
1014.318857
31
0.000000
39
0.000000
0
LINE
8
_2-7_家具
6
CONTINUOUS
62
4
10
6388.797532
20
1016.660034
30
0.000000
11
6397.243259
21
1013.127568
31
0.000000
39
0.000000
0
LINE
8
_2-7_家具
6
CONTINUOUS
62
4
10
6383.919620
20
1025.906438
30
0.000000
11
6388.797532
21
1016.660034
31
0.000000
39
0.000000
0
LINE
8
_2-7_家具
6
CONTINUOUS
62
4
10
6381.730741
20
1065.667615
30
0.000000
11
6383.919620
21
1025.906438
31
0.000000
39
0.000000
0
LINE
8
_2-7_家具
6
CONTINUOUS
62
4
10
6378.595643
20
1080.768441
30
0.000000
11
6381.730741
21
1065.667615
31
0.000000
39
0.000000
0
LINE
8
_2-7_家具
6
CONTINUOUS
62
4
10
6370.972501
20
1087.298818
30
0.000000
11
6378.595643
21
1080.768441
31
0.000000
39
0.000000
0
LINE
8
_2-7_家具
6
CONTINUOUS
62
4
10
6361.133787
20
1088.581409
30
0.000000
11
6370.972501
21
1087.298818
31
0.000000
39
0.000000
0
LINE
8
_2-7_家具
6
CONTINUOUS
62
4
10
6352.004562
20
1084.692192
30
0.000000
11
6361.133787
21
1088.581409
31
0.000000
39
0.000000
0
LINE
8
_2-7_家具
6
CONTINUOUS
62
4
10
6346.606827
20
1074.503266
30
0.000000
11
6352.004562
21
1084.692192
31
0.000000
39
0.000000
0
LINE
8
_2-7_家具
6
CONTINUOUS
62
4
10
6344.805708
20
1044.598650
30
0.000000
11
6346.606827
21
1074.503266
31
0.000000
39
0.000000
0
LINE
8
_2-7_家具
6
CONTINUOUS
62
4
10
6341.467598
20
1020.122490
30
0.000000
11
6344.805708
21
1044.598650
31
0.000000
39
0.000000
0
LINE
8
_2-7_家具
6
CONTINUOUS
62
4
10
6334.555350
20
1014.318857
30
0.000000
11
6341.467598
21
1020.122490
31
0.000000
39
0.000000
0
LINE
8
_2-7_家具
6
CONTINUOUS
62
4
10
6325.310921
20
1013.127568
30
0.000000
11
6334.555350
21
1014.318857
31
0.000000
39
0.000000
0
LINE
8
_2-7_家具
6
CONTINUOUS
62
4
10
6316.864490
20
1016.660034
30
0.000000
11
6325.310921
21
1013.127568
31
0.000000
39
0.000000
0
LINE
8
_2-7_家具
6
CONTINUOUS
62
4
10
6311.985174
20
1025.913829
30
0.000000
11
6316.864490
21
1016.660034
31
0.000000
39
0.000000
0
LINE
8
_2-7_家具
6
CONTINUOUS
62
4
10
6308.734169
20
1074.508938
30
0.000000
11
6311.985174
21
1025.913829
31
0.000000
39
0.000000
0
LINE
8
_2-7_家具
6
CONTINUOUS
62
4
10
6303.252138
20
1084.802619
30
0.000000
11
6308.734169
21
1074.508938
31
0.000000
39
0.000000
0
LINE
8
_2-7_家具
6
CONTINUOUS
62
4
10
6288.735012
20
1089.292169
30
0.000000
11
6303.252138
21
1084.802619
31
0.000000
39
0.000000
0
LINE
8
_2-7_家具
6
CONTINUOUS
62
4
10
6279.632481
20
1085.153847
30
0.000000
11
6288.735012
21
1089.292169
31
0.000000
39
0.000000
0
LINE
8
_2-7_家具
6
CONTINUOUS
62
4
10
6273.681204
20
1067.385433
30
0.000000
11
6279.632481
21
1085.153847
31
0.000000
39
0.000000
0
LINE
8
_2-7_家具
6
CONTINUOUS
62
4
10
6273.665749
20
1036.786083
30
0.000000
11
6273.681204
21
1067.385433
31
0.000000
39
0.000000
0
LINE
8
_2-7_家具
6
CONTINUOUS
62
4
10
6276.607670
20
1009.292169
30
0.000000
11
6273.665749
21
1036.786083
31
0.000000
39
0.000000
0
LINE
8
_2-7_家具
6
CONTINUOUS
62
4
10
6672.946426
20
1009.442387
30
0.000000
11
6671.478978
21
1058.508010
31
0.000000
39
0.000000
0
LINE
8
_2-7_家具
6
CONTINUOUS
62
4
10
6671.478978
20
1058.508010
30
0.000000
11
6668.102232
21
1074.382173
31
0.000000
39
0.000000
0
LINE
8
_2-7_家具
6
CONTINUOUS
62
4
10
6668.102232
20
1074.382173
30
0.000000
11
6662.586483
21
1084.395565
31
0.000000
39
0.000000
0
LINE
8
_2-7_家具
6
CONTINUOUS
62
4
10
6662.586483
20
1084.395565
30
0.000000
11
6653.800060
21
1088.283124
31
0.000000
39
0.000000
0
LINE
8
_2-7_家具
6
CONTINUOUS
62
4
10
6653.800060
20
1088.283124
30
0.000000
11
6644.257786
21
1086.633853
31
0.000000
39
0.000000
0
LINE
8
_2-7_家具
6
CONTINUOUS
62
4
10
6644.257786
20
1086.633853
30
0.000000
11
6636.980257
21
1080.154608
31
0.000000
39
0.000000
0
LINE
8
_2-7_家具
6
CONTINUOUS
62
4
10
6636.980257
20
1080.154608
30
0.000000
11
6633.520620
21
1055.238923
31
0.000000
39
0.000000
0
LINE
8
_2-7_家具
6
CONTINUOUS
62
4
10
6633.520620
20
1055.238923
30
0.000000
11
6631.758840
21
1025.552162
31
0.000000
39
0.000000
0
LINE
8
_2-7_家具
6
CONTINUOUS
62
4
10
6631.758840
20
1025.552162
30
0.000000
11
6626.620314
21
1015.833287
31
0.000000
39
0.000000
0
LINE
8
_2-7_家具
6
CONTINUOUS
62
4
10
6626.620314
20
1015.833287
30
0.000000
11
6617.833891
21
1012.122449
31
0.000000
39
0.000000
0
LINE
8
_2-7_家具
6
CONTINUOUS
62
4
10
6617.833891
20
1012.122449
30
0.000000
11
6608.291617
21
1013.359395
31
0.000000
39
0.000000
0
LINE
8
_2-7_家具
6
CONTINUOUS
62
4
10
6608.291617
20
1013.359395
30
0.000000
11
6601.014087
21
1019.544132
31
0.000000
39
0.000000
0
LINE
8
_2-7_家具
6
CONTINUOUS
62
4
10
6601.014087
20
1019.544132
30
0.000000
11
6598.015970
21
1034.210806
31
0.000000
39
0.000000
0
LINE
8
_2-7_家具
6
CONTINUOUS
62
4
10
6598.015970
20
1034.210806
30
0.000000
11
6596.820376
21
1065.487934
31
0.000000
39
0.000000
0
LINE
8
_2-7_家具
6
CONTINUOUS
62
4
10
6596.820376
20
1065.487934
30
0.000000
11
6593.820853
21
1080.154608
31
0.000000
39
0.000000
0
LINE
8
_2-7_家具
6
CONTINUOUS
62
4
10
6593.820853
20
1080.154608
30
0.000000
11
6586.544026
21
1086.339337
31
0.000000
39
0.000000
0
LINE
8
_2-7_家具
6
CONTINUOUS
62
4
10
6586.544026
20
1086.339337
30
0.000000
11
6577.002454
21
1087.576282
31
0.000000
39
0.000000
0
LINE
8
_2-7_家具
6
CONTINUOUS
62
4
10
6577.002454
20
1087.576282
30
0.000000
11
6568.214627
21
1083.865445
31
0.000000
39
0.000000
0
LINE
8
_2-7_家具
6
CONTINUOUS
62
4
10
6568.214627
20
1083.865445
30
0.000000
11
6563.076803
21
1074.146570
31
0.000000
39
0.000000
0
LINE
8
_2-7_家具
6
CONTINUOUS
62
4
10
6563.076803
20
1074.146570
30
0.000000
11
6559.826501
21
1025.552162
31
0.000000
39
0.000000
0
LINE
8
_2-7_家具
6
CONTINUOUS
62
4
10
6559.826501
20
1025.552162
30
0.000000
11
6554.687975
21
1015.833287
31
0.000000
39
0.000000
0
LINE
8
_2-7_家具
6
CONTINUOUS
62
4
10
6554.687975
20
1015.833287
30
0.000000
11
6545.901552
21
1012.122449
31
0.000000
39
0.000000
0
LINE
8
_2-7_家具
6
CONTINUOUS
62
4
10
6545.901552
20
1012.122449
30
0.000000
11
6536.359278
21
1013.359395
31
0.000000
39
0.000000
0
LINE
8
_2-7_家具
6
CONTINUOUS
62
4
10
6536.359278
20
1013.359395
30
0.000000
11
6529.081749
21
1019.544132
31
0.000000
39
0.000000
0
LINE
8
_2-7_家具
6
CONTINUOUS
62
4
10
6529.081749
20
1019.544132
30
0.000000
11
6526.083631
21
1034.210806
31
0.000000
39
0.000000
0
LINE
8
_2-7_家具
6
CONTINUOUS
62
4
10
6526.083631
20
1034.210806
30
0.000000
11
6523.860332
21
1074.146570
31
0.000000
39
0.000000
0
LINE
8
_2-7_家具
6
CONTINUOUS
62
4
10
6523.860332
20
1074.146570
30
0.000000
11
6518.721806
21
1083.865445
31
0.000000
39
0.000000
0
LINE
8
_2-7_家具
6
CONTINUOUS
62
4
10
6518.721806
20
1083.865445
30
0.000000
11
6509.935383
21
1087.576298
31
0.000000
39
0.000000
0
LINE
8
_2-7_家具
6
CONTINUOUS
62
4
10
6509.935383
20
1087.576298
30
0.000000
11
6500.393109
21
1086.339337
31
0.000000
39
0.000000
0
LINE
8
_2-7_家具
6
CONTINUOUS
62
4
10
6500.393109
20
1086.339337
30
0.000000
11
6493.115579
21
1080.154608
31
0.000000
39
0.000000
0
LINE
8
_2-7_家具
6
CONTINUOUS
62
4
10
6493.115579
20
1080.154608
30
0.000000
11
6490.117462
21
1065.487934
31
0.000000
39
0.000000
0
LINE
8
_2-7_家具
6
CONTINUOUS
62
4
10
6490.117462
20
1065.487934
30
0.000000
11
6487.894163
21
1025.552162
31
0.000000
39
0.000000
0
LINE
8
_2-7_家具
6
CONTINUOUS
62
4
10
6487.894163
20
1025.552162
30
0.000000
11
6482.755637
21
1015.833287
31
0.000000
39
0.000000
0
LINE
8
_2-7_家具
6
CONTINUOUS
62
4
10
6482.755637
20
1015.833287
30
0.000000
11
6473.969214
21
1012.122449
31
0.000000
39
0.000000
0
LINE
8
_2-7_家具
6
CONTINUOUS
62
4
10
6473.969214
20
1012.122449
30
0.000000
11
6464.426940
21
1013.359395
31
0.000000
39
0.000000
0
LINE
8
_2-7_家具
6
CONTINUOUS
62
4
10
6464.426940
20
1013.359395
30
0.000000
11
6457.149410
21
1019.544132
31
0.000000
39
0.000000
0
LINE
8
_2-7_家具
6
CONTINUOUS
62
4
10
6457.149410
20
1019.544132
30
0.000000
11
6454.151293
21
1034.210806
31
0.000000
39
0.000000
0
LINE
8
_2-7_家具
6
CONTINUOUS
62
4
10
6454.151293
20
1034.210806
30
0.000000
11
6452.955698
21
1065.487934
31
0.000000
39
0.000000
0
LINE
8
_2-7_家具
6
CONTINUOUS
62
4
10
6452.955698
20
1065.487934
30
0.000000
11
6449.956176
21
1080.154608
31
0.000000
39
0.000000
0
LINE
8
_2-7_家具
6
CONTINUOUS
62
4
10
6449.956176
20
1080.154608
30
0.000000
11
6442.679349
21
1086.339337
31
0.000000
39
0.000000
0
LINE
8
_2-7_家具
6
CONTINUOUS
62
4
10
6442.679349
20
1086.339337
30
0.000000
11
6433.137777
21
1087.576282
31
0.000000
39
0.000000
0
LINE
8
_2-7_家具
6
CONTINUOUS
62
4
10
6433.137777
20
1087.576282
30
0.000000
11
6424.349949
21
1083.865445
31
0.000000
39
0.000000
0
LINE
8
_2-7_家具
6
CONTINUOUS
62
4
10
6424.349949
20
1083.865445
30
0.000000
11
6419.212126
21
1074.146570
31
0.000000
39
0.000000
0
LINE
8
_2-7_家具
6
CONTINUOUS
62
4
10
6419.212126
20
1074.146570
30
0.000000
11
6416.989529
21
1034.210806
31
0.000000
39
0.000000
0
LINE
8
_2-7_家具
6
CONTINUOUS
62
4
10
6416.989529
20
1034.210806
30
0.000000
11
6413.990007
21
1019.544132
31
0.000000
39
0.000000
0
LINE
8
_2-7_家具
6
CONTINUOUS
62
4
10
6413.990007
20
1019.544132
30
0.000000
11
6406.713180
21
1013.359379
31
0.000000
39
0.000000
0
LINE
8
_2-7_家具
6
CONTINUOUS
62
4
10
6406.713180
20
1013.359379
30
0.000000
11
6397.171608
21
1012.122441
31
0.000000
39
0.000000
0
LINE
8
_2-7_家具
6
CONTINUOUS
62
4
10
6397.171608
20
1012.122441
30
0.000000
11
6388.383780
21
1015.833287
31
0.000000
39
0.000000
0
LINE
8
_2-7_家具
6
CONTINUOUS
62
4
10
6388.383780
20
1015.833287
30
0.000000
11
6383.245957
21
1025.552162
31
0.000000
39
0.000000
0
LINE
8
_2-7_家具
6
CONTINUOUS
62
4
10
6383.245957
20
1025.552162
30
0.000000
11
6381.023360
21
1065.487934
31
0.000000
39
0.000000
0
LINE
8
_2-7_家具
6
CONTINUOUS
62
4
10
6381.023360
20
1065.487934
30
0.000000
11
6378.023837
21
1080.154608
31
0.000000
39
0.000000
0
LINE
8
_2-7_家具
6
CONTINUOUS
62
4
10
6378.023837
20
1080.154608
30
0.000000
11
6370.747713
21
1086.339337
31
0.000000
39
0.000000
0
LINE
8
_2-7_家具
6
CONTINUOUS
62
4
10
6370.747713
20
1086.339337
30
0.000000
11
6361.205439
21
1087.576282
31
0.000000
39
0.000000
0
LINE
8
_2-7_家具
6
CONTINUOUS
62
4
10
6361.205439
20
1087.576282
30
0.000000
11
6352.417611
21
1083.865445
31
0.000000
39
0.000000
0
LINE
8
_2-7_家具
6
CONTINUOUS
62
4
10
6352.417611
20
1083.865445
30
0.000000
11
6347.279787
21
1074.146570
31
0.000000
39
0.000000
0
LINE
8
_2-7_家具
6
CONTINUOUS
62
4
10
6347.279787
20
1074.146570
30
0.000000
11
6345.518007
21
1044.459808
31
0.000000
39
0.000000
0
LINE
8
_2-7_家具
6
CONTINUOUS
62
4
10
6345.518007
20
1044.459808
30
0.000000
11
6342.057668
21
1019.544132
31
0.000000
39
0.000000
0
LINE
8
_2-7_家具
6
CONTINUOUS
62
4
10
6342.057668
20
1019.544132
30
0.000000
11
6334.781543
21
1013.359379
31
0.000000
39
0.000000
0
LINE
8
_2-7_家具
6
CONTINUOUS
62
4
10
6334.781543
20
1013.359379
30
0.000000
11
6325.239269
21
1012.122441
31
0.000000
39
0.000000
0
LINE
8
_2-7_家具
6
CONTINUOUS
62
4
10
6325.239269
20
1012.122441
30
0.000000
11
6316.451441
21
1015.833287
31
0.000000
39
0.000000
0
LINE
8
_2-7_家具
6
CONTINUOUS
62
4
10
6316.451441
20
1015.833287
30
0.000000
11
6311.313618
21
1025.552162
31
0.000000
39
0.000000
0
LINE
8
_2-7_家具
6
CONTINUOUS
62
4
10
6311.313618
20
1025.552162
30
0.000000
11
6308.062613
21
1074.146570
31
0.000000
39
0.000000
0
LINE
8
_2-7_家具
6
CONTINUOUS
62
4
10
6308.062613
20
1074.146570
30
0.000000
11
6302.861568
21
1083.953798
31
0.000000
39
0.000000
0
LINE
8
_2-7_家具
6
CONTINUOUS
62
4
10
6302.861568
20
1083.953798
30
0.000000
11
6288.770135
21
1088.283109
31
0.000000
39
0.000000
0
LINE
8
_2-7_家具
6
CONTINUOUS
62
4
10
6288.770135
20
1088.283109
30
0.000000
11
6280.108751
21
1084.395565
31
0.000000
39
0.000000
0
LINE
8
_2-7_家具
6
CONTINUOUS
62
4
10
6280.108751
20
1084.395565
30
0.000000
11
6274.383668
21
1067.166646
31
0.000000
39
0.000000
0
LINE
8
_2-7_家具
6
CONTINUOUS
62
4
10
6274.383668
20
1067.166646
30
0.000000
11
6274.383668
21
1036.861404
31
0.000000
39
0.000000
0
LINE
8
_2-7_家具
6
CONTINUOUS
62
4
10
6274.383668
20
1036.861404
30
0.000000
11
6277.318563
21
1009.442387
31
0.000000
39
0.000000
0
LINE
8
_2-7_家具
6
CONTINUOUS
62
4
10
6672.946426
20
1009.442387
30
0.000000
11
6673.665749
21
1009.484799
31
0.000000
39
0.000000
0
LINE
8
_2-7_家具
6
CONTINUOUS
62
4
10
6277.318563
20
1009.442387
30
0.000000
11
6276.607670
21
1009.292169
31
0.000000
39
0.000000
0
LINE
8
_2-7_家具
6
CONTINUOUS
62
4
10
3074.056204
20
1066.189428
30
0.000000
11
3075.533486
21
1016.999172
31
0.000000
39
0.000000
0
LINE
8
_2-7_家具
6
CONTINUOUS
62
4
10
3070.609914
20
1082.357935
30
0.000000
11
3074.056204
21
1066.189428
31
0.000000
39
0.000000
0
LINE
8
_2-7_家具
6
CONTINUOUS
62
4
10
3064.865864
20
1092.738619
30
0.000000
11
3070.609914
21
1082.357935
31
0.000000
39
0.000000
0
LINE
8
_2-7_家具
6
CONTINUOUS
62
4
10
3055.733127
20
1096.803460
30
0.000000
11
3064.865864
21
1092.738619
31
0.000000
39
0.000000
0
LINE
8
_2-7_家具
6
CONTINUOUS
62
4
10
3045.883173
20
1095.099303
30
0.000000
11
3055.733127
21
1096.803460
31
0.000000
39
0.000000
0
LINE
8
_2-7_家具
6
CONTINUOUS
62
4
10
3038.254411
20
1088.238685
30
0.000000
11
3045.883173
21
1095.099303
31
0.000000
39
0.000000
0
LINE
8
_2-7_家具
6
CONTINUOUS
62
4
10
3034.675356
20
1062.892138
30
0.000000
11
3038.254411
21
1088.238685
31
0.000000
39
0.000000
0
LINE
8
_2-7_家具
6
CONTINUOUS
62
4
10
3032.953616
20
1033.423231
30
0.000000
11
3034.675356
21
1062.892138
31
0.000000
39
0.000000
0
LINE
8
_2-7_家具
6
CONTINUOUS
62
4
10
3028.075002
20
1024.174407
30
0.000000
11
3032.953616
21
1033.423231
31
0.000000
39
0.000000
0
LINE
8
_2-7_家具
6
CONTINUOUS
62
4
10
3019.629274
20
1020.641941
30
0.000000
11
3028.075002
21
1024.174407
31
0.000000
39
0.000000
0
LINE
8
_2-7_家具
6
CONTINUOUS
62
4
10
3010.384142
20
1021.833253
30
0.000000
11
3019.629274
21
1020.641941
31
0.000000
39
0.000000
0
LINE
8
_2-7_家具
6
CONTINUOUS
62
4
10
3003.453630
20
1027.672330
30
0.000000
11
3010.384142
21
1021.833253
31
0.000000
39
0.000000
0
LINE
8
_2-7_家具
6
CONTINUOUS
62
4
10
3000.592493
20
1041.892714
30
0.000000
11
3003.453630
21
1027.672330
31
0.000000
39
0.000000
0
LINE
8
_2-7_家具
6
CONTINUOUS
62
4
10
2999.397602
20
1073.169849
30
0.000000
11
3000.592493
21
1041.892714
31
0.000000
39
0.000000
0
LINE
8
_2-7_家具
6
CONTINUOUS
62
4
10
2996.260396
20
1088.282814
30
0.000000
11
2999.397602
21
1073.169849
31
0.000000
39
0.000000
0
LINE
8
_2-7_家具
6
CONTINUOUS
62
4
10
2988.637254
20
1094.813191
30
0.000000
11
2996.260396
21
1088.282814
31
0.000000
39
0.000000
0
LINE
8
_2-7_家具
6
CONTINUOUS
62
4
10
2978.797838
20
1096.095782
30
0.000000
11
2988.637254
21
1094.813191
31
0.000000
39
0.000000
0
LINE
8
_2-7_家具
6
CONTINUOUS
62
4
10
2969.669315
20
1092.206565
30
0.000000
11
2978.797838
21
1096.095782
31
0.000000
39
0.000000
0
LINE
8
_2-7_家具
6
CONTINUOUS
62
4
10
2964.272984
20
1082.022608
30
0.000000
11
2969.669315
21
1092.206565
31
0.000000
39
0.000000
0
LINE
8
_2-7_家具
6
CONTINUOUS
62
4
10
2961.022682
20
1033.428202
30
0.000000
11
2964.272984
21
1082.022608
31
0.000000
39
0.000000
0
LINE
8
_2-7_家具
6
CONTINUOUS
62
4
10
2956.142663
20
1024.174407
30
0.000000
11
2961.022682
21
1033.428202
31
0.000000
39
0.000000
0
LINE
8
_2-7_家具
6
CONTINUOUS
62
4
10
2947.696936
20
1020.641941
30
0.000000
11
2956.142663
21
1024.174407
31
0.000000
39
0.000000
0
LINE
8
_2-7_家具
6
CONTINUOUS
62
4
10
2938.451804
20
1021.833253
30
0.000000
11
2947.696936
21
1020.641941
31
0.000000
39
0.000000
0
LINE
8
_2-7_家具
6
CONTINUOUS
62
4
10
2931.521291
20
1027.672330
30
0.000000
11
2938.451804
21
1021.833253
31
0.000000
39
0.000000
0
LINE
8
_2-7_家具
6
CONTINUOUS
62
4
10
2928.658750
20
1041.904852
30
0.000000
11
2931.521291
21
1027.672330
31
0.000000
39
0.000000
0
LINE
8
_2-7_家具
6
CONTINUOUS
62
4
10
2926.401732
20
1082.015217
30
0.000000
11
2928.658750
21
1041.904852
31
0.000000
39
0.000000
0
LINE
8
_2-7_家具
6
CONTINUOUS
62
4
10
2921.003294
20
1092.206565
30
0.000000
11
2926.401732
21
1082.015217
31
0.000000
39
0.000000
0
LINE
8
_2-7_家具
6
CONTINUOUS
62
4
10
2911.874771
20
1096.095793
30
0.000000
11
2921.003294
21
1092.206565
31
0.000000
39
0.000000
0
LINE
8
_2-7_家具
6
CONTINUOUS
62
4
10
2902.036057
20
1094.813195
30
0.000000
11
2911.874771
21
1096.095793
31
0.000000
39
0.000000
0
LINE
8
_2-7_家具
6
CONTINUOUS
62
4
10
2894.412213
20
1088.282810
30
0.000000
11
2902.036057
21
1094.813195
31
0.000000
39
0.000000
0
LINE
8
_2-7_家具
6
CONTINUOUS
62
4
10
2891.277115
20
1073.181980
30
0.000000
11
2894.412213
21
1088.282810
31
0.000000
39
0.000000
0
LINE
8
_2-7_家具
6
CONTINUOUS
62
4
10
2889.088236
20
1033.420811
30
0.000000
11
2891.277115
21
1073.181980
31
0.000000
39
0.000000
0
LINE
8
_2-7_家具
6
CONTINUOUS
62
4
10
2884.210325
20
1024.174407
30
0.000000
11
2889.088236
21
1033.420811
31
0.000000
39
0.000000
0
LINE
8
_2-7_家具
6
CONTINUOUS
62
4
10
2875.764597
20
1020.641941
30
0.000000
11
2884.210325
21
1024.174407
31
0.000000
39
0.000000
0
LINE
8
_2-7_家具
6
CONTINUOUS
62
4
10
2866.519465
20
1021.833253
30
0.000000
11
2875.764597
21
1020.641941
31
0.000000
39
0.000000
0
LINE
8
_2-7_家具
6
CONTINUOUS
62
4
10
2859.588953
20
1027.672330
30
0.000000
11
2866.519465
21
1021.833253
31
0.000000
39
0.000000
0
LINE
8
_2-7_家具
6
CONTINUOUS
62
4
10
2856.727816
20
1041.892714
30
0.000000
11
2859.588953
21
1027.672330
31
0.000000
39
0.000000
0
LINE
8
_2-7_家具
6
CONTINUOUS
62
4
10
2855.532924
20
1073.169849
30
0.000000
11
2856.727816
21
1041.892714
31
0.000000
39
0.000000
0
LINE
8
_2-7_家具
6
CONTINUOUS
62
4
10
2852.395719
20
1088.282814
30
0.000000
11
2855.532924
21
1073.169849
31
0.000000
39
0.000000
0
LINE
8
_2-7_家具
6
CONTINUOUS
62
4
10
2844.772577
20
1094.813191
30
0.000000
11
2852.395719
21
1088.282814
31
0.000000
39
0.000000
0
LINE
8
_2-7_家具
6
CONTINUOUS
62
4
10
2834.933160
20
1096.095782
30
0.000000
11
2844.772577
21
1094.813191
31
0.000000
39
0.000000
0
LINE
8
_2-7_家具
6
CONTINUOUS
62
4
10
2825.804637
20
1092.206565
30
0.000000
11
2834.933160
21
1096.095782
31
0.000000
39
0.000000
0
LINE
8
_2-7_家具
6
CONTINUOUS
62
4
10
2820.406200
20
1082.015215
30
0.000000
11
2825.804637
21
1092.206565
31
0.000000
39
0.000000
0
LINE
8
_2-7_家具
6
CONTINUOUS
62
4
10
2818.149182
20
1041.904860
30
0.000000
11
2820.406200
21
1082.015215
31
0.000000
39
0.000000
0
LINE
8
_2-7_家具
6
CONTINUOUS
62
4
10
2815.286640
20
1027.672338
30
0.000000
11
2818.149182
21
1041.904860
31
0.000000
39
0.000000
0
LINE
8
_2-7_家具
6
CONTINUOUS
62
4
10
2808.356128
20
1021.833230
30
0.000000
11
2815.286640
21
1027.672338
31
0.000000
39
0.000000
0
LINE
8
_2-7_家具
6
CONTINUOUS
62
4
10
2799.110996
20
1020.641941
30
0.000000
11
2808.356128
21
1021.833230
31
0.000000
39
0.000000
0
LINE
8
_2-7_家具
6
CONTINUOUS
62
4
10
2790.665269
20
1024.174407
30
0.000000
11
2799.110996
21
1020.641941
31
0.000000
39
0.000000
0
LINE
8
_2-7_家具
6
CONTINUOUS
62
4
10
2785.787357
20
1033.420811
30
0.000000
11
2790.665269
21
1024.174407
31
0.000000
39
0.000000
0
LINE
8
_2-7_家具
6
CONTINUOUS
62
4
10
2783.598478
20
1073.181988
30
0.000000
11
2785.787357
21
1033.420811
31
0.000000
39
0.000000
0
LINE
8
_2-7_家具
6
CONTINUOUS
62
4
10
2780.463380
20
1088.282814
30
0.000000
11
2783.598478
21
1073.181988
31
0.000000
39
0.000000
0
LINE
8
_2-7_家具
6
CONTINUOUS
62
4
10
2772.840238
20
1094.813191
30
0.000000
11
2780.463380
21
1088.282814
31
0.000000
39
0.000000
0
LINE
8
_2-7_家具
6
CONTINUOUS
62
4
10
2763.001524
20
1096.095782
30
0.000000
11
2772.840238
21
1094.813191
31
0.000000
39
0.000000
0
LINE
8
_2-7_家具
6
CONTINUOUS
62
4
10
2753.872299
20
1092.206565
30
0.000000
11
2763.001524
21
1096.095782
31
0.000000
39
0.000000
0
LINE
8
_2-7_家具
6
CONTINUOUS
62
4
10
2748.474564
20
1082.017639
30
0.000000
11
2753.872299
21
1092.206565
31
0.000000
39
0.000000
0
LINE
8
_2-7_家具
6
CONTINUOUS
62
4
10
2746.673445
20
1052.113023
30
0.000000
11
2748.474564
21
1082.017639
31
0.000000
39
0.000000
0
LINE
8
_2-7_家具
6
CONTINUOUS
62
4
10
2743.335335
20
1027.636863
30
0.000000
11
2746.673445
21
1052.113023
31
0.000000
39
0.000000
0
LINE
8
_2-7_家具
6
CONTINUOUS
62
4
10
2736.423087
20
1021.833230
30
0.000000
11
2743.335335
21
1027.636863
31
0.000000
39
0.000000
0
LINE
8
_2-7_家具
6
CONTINUOUS
62
4
10
2727.178657
20
1020.641941
30
0.000000
11
2736.423087
21
1021.833230
31
0.000000
39
0.000000
0
LINE
8
_2-7_家具
6
CONTINUOUS
62
4
10
2718.732227
20
1024.174407
30
0.000000
11
2727.178657
21
1020.641941
31
0.000000
39
0.000000
0
LINE
8
_2-7_家具
6
CONTINUOUS
62
4
10
2713.852911
20
1033.428202
30
0.000000
11
2718.732227
21
1024.174407
31
0.000000
39
0.000000
0
LINE
8
_2-7_家具
6
CONTINUOUS
62
4
10
2710.601906
20
1082.023311
30
0.000000
11
2713.852911
21
1033.428202
31
0.000000
39
0.000000
0
LINE
8
_2-7_家具
6
CONTINUOUS
62
4
10
2705.119875
20
1092.316992
30
0.000000
11
2710.601906
21
1082.023311
31
0.000000
39
0.000000
0
LINE
8
_2-7_家具
6
CONTINUOUS
62
4
10
2690.602749
20
1096.806542
30
0.000000
11
2705.119875
21
1092.316992
31
0.000000
39
0.000000
0
LINE
8
_2-7_家具
6
CONTINUOUS
62
4
10
2681.500218
20
1092.668220
30
0.000000
11
2690.602749
21
1096.806542
31
0.000000
39
0.000000
0
LINE
8
_2-7_家具
6
CONTINUOUS
62
4
10
2675.548940
20
1074.899806
30
0.000000
11
2681.500218
21
1092.668220
31
0.000000
39
0.000000
0
LINE
8
_2-7_家具
6
CONTINUOUS
62
4
10
2675.533486
20
1044.300456
30
0.000000
11
2675.548940
21
1074.899806
31
0.000000
39
0.000000
0
LINE
8
_2-7_家具
6
CONTINUOUS
62
4
10
2678.475406
20
1016.806542
30
0.000000
11
2675.533486
21
1044.300456
31
0.000000
39
0.000000
0
LINE
8
_2-7_家具
6
CONTINUOUS
62
4
10
3074.814163
20
1016.956760
30
0.000000
11
3073.346715
21
1066.022383
31
0.000000
39
0.000000
0
LINE
8
_2-7_家具
6
CONTINUOUS
62
4
10
3073.346715
20
1066.022383
30
0.000000
11
3069.969969
21
1081.896546
31
0.000000
39
0.000000
0
LINE
8
_2-7_家具
6
CONTINUOUS
62
4
10
3069.969969
20
1081.896546
30
0.000000
11
3064.454220
21
1091.909938
31
0.000000
39
0.000000
0
LINE
8
_2-7_家具
6
CONTINUOUS
62
4
10
3064.454220
20
1091.909938
30
0.000000
11
3055.667797
21
1095.797497
31
0.000000
39
0.000000
0
LINE
8
_2-7_家具
6
CONTINUOUS
62
4
10
3055.667797
20
1095.797497
30
0.000000
11
3046.125523
21
1094.148226
31
0.000000
39
0.000000
0
LINE
8
_2-7_家具
6
CONTINUOUS
62
4
10
3046.125523
20
1094.148226
30
0.000000
11
3038.847994
21
1087.668981
31
0.000000
39
0.000000
0
LINE
8
_2-7_家具
6
CONTINUOUS
62
4
10
3038.847994
20
1087.668981
30
0.000000
11
3035.388357
21
1062.753296
31
0.000000
39
0.000000
0
LINE
8
_2-7_家具
6
CONTINUOUS
62
4
10
3035.388357
20
1062.753296
30
0.000000
11
3033.626577
21
1033.066535
31
0.000000
39
0.000000
0
LINE
8
_2-7_家具
6
CONTINUOUS
62
4
10
3033.626577
20
1033.066535
30
0.000000
11
3028.488051
21
1023.347659
31
0.000000
39
0.000000
0
LINE
8
_2-7_家具
6
CONTINUOUS
62
4
10
3028.488051
20
1023.347659
30
0.000000
11
3019.701628
21
1019.636822
31
0.000000
39
0.000000
0
LINE
8
_2-7_家具
6
CONTINUOUS
62
4
10
3019.701628
20
1019.636822
30
0.000000
11
3010.159354
21
1020.873768
31
0.000000
39
0.000000
0
LINE
8
_2-7_家具
6
CONTINUOUS
62
4
10
3010.159354
20
1020.873768
30
0.000000
11
3002.881824
21
1027.058505
31
0.000000
39
0.000000
0
LINE
8
_2-7_家具
6
CONTINUOUS
62
4
10
3002.881824
20
1027.058505
30
0.000000
11
2999.883707
21
1041.725179
31
0.000000
39
0.000000
0
LINE
8
_2-7_家具
6
CONTINUOUS
62
4
10
2999.883707
20
1041.725179
30
0.000000
11
2998.688113
21
1073.002306
31
0.000000
39
0.000000
0
LINE
8
_2-7_家具
6
CONTINUOUS
62
4
10
2998.688113
20
1073.002306
30
0.000000
11
2995.688590
21
1087.668981
31
0.000000
39
0.000000
0
LINE
8
_2-7_家具
6
CONTINUOUS
62
4
10
2995.688590
20
1087.668981
30
0.000000
11
2988.411763
21
1093.853710
31
0.000000
39
0.000000
0
LINE
8
_2-7_家具
6
CONTINUOUS
62
4
10
2988.411763
20
1093.853710
30
0.000000
11
2978.870191
21
1095.090655
31
0.000000
39
0.000000
0
LINE
8
_2-7_家具
6
CONTINUOUS
62
4
10
2978.870191
20
1095.090655
30
0.000000
11
2970.082364
21
1091.379818
31
0.000000
39
0.000000
0
LINE
8
_2-7_家具
6
CONTINUOUS
62
4
10
2970.082364
20
1091.379818
30
0.000000
11
2964.944540
21
1081.660943
31
0.000000
39
0.000000
0
LINE
8
_2-7_家具
6
CONTINUOUS
62
4
10
2964.944540
20
1081.660943
30
0.000000
11
2961.694238
21
1033.066535
31
0.000000
39
0.000000
0
LINE
8
_2-7_家具
6
CONTINUOUS
62
4
10
2961.694238
20
1033.066535
30
0.000000
11
2956.555712
21
1023.347659
31
0.000000
39
0.000000
0
LINE
8
_2-7_家具
6
CONTINUOUS
62
4
10
2956.555712
20
1023.347659
30
0.000000
11
2947.769289
21
1019.636822
31
0.000000
39
0.000000
0
LINE
8
_2-7_家具
6
CONTINUOUS
62
4
10
2947.769289
20
1019.636822
30
0.000000
11
2938.227015
21
1020.873768
31
0.000000
39
0.000000
0
LINE
8
_2-7_家具
6
CONTINUOUS
62
4
10
2938.227015
20
1020.873768
30
0.000000
11
2930.949486
21
1027.058505
31
0.000000
39
0.000000
0
LINE
8
_2-7_家具
6
CONTINUOUS
62
4
10
2930.949486
20
1027.058505
30
0.000000
11
2927.951368
21
1041.725179
31
0.000000
39
0.000000
0
LINE
8
_2-7_家具
6
CONTINUOUS
62
4
10
2927.951368
20
1041.725179
30
0.000000
11
2925.728069
21
1081.660943
31
0.000000
39
0.000000
0
LINE
8
_2-7_家具
6
CONTINUOUS
62
4
10
2925.728069
20
1081.660943
30
0.000000
11
2920.589543
21
1091.379818
31
0.000000
39
0.000000
0
LINE
8
_2-7_家具
6
CONTINUOUS
62
4
10
2920.589543
20
1091.379818
30
0.000000
11
2911.803120
21
1095.090671
31
0.000000
39
0.000000
0
LINE
8
_2-7_家具
6
CONTINUOUS
62
4
10
2911.803120
20
1095.090671
30
0.000000
11
2902.260846
21
1093.853710
31
0.000000
39
0.000000
0
LINE
8
_2-7_家具
6
CONTINUOUS
62
4
10
2902.260846
20
1093.853710
30
0.000000
11
2894.983316
21
1087.668981
31
0.000000
39
0.000000
0
LINE
8
_2-7_家具
6
CONTINUOUS
62
4
10
2894.983316
20
1087.668981
30
0.000000
11
2891.985199
21
1073.002306
31
0.000000
39
0.000000
0
LINE
8
_2-7_家具
6
CONTINUOUS
62
4
10
2891.985199
20
1073.002306
30
0.000000
11
2889.761900
21
1033.066535
31
0.000000
39
0.000000
0
LINE
8
_2-7_家具
6
CONTINUOUS
62
4
10
2889.761900
20
1033.066535
30
0.000000
11
2884.623374
21
1023.347659
31
0.000000
39
0.000000
0
LINE
8
_2-7_家具
6
CONTINUOUS
62
4
10
2884.623374
20
1023.347659
30
0.000000
11
2875.836951
21
1019.636822
31
0.000000
39
0.000000
0
LINE
8
_2-7_家具
6
CONTINUOUS
62
4
10
2875.836951
20
1019.636822
30
0.000000
11
2866.294676
21
1020.873768
31
0.000000
39
0.000000
0
LINE
8
_2-7_家具
6
CONTINUOUS
62
4
10
2866.294676
20
1020.873768
30
0.000000
11
2859.017147
21
1027.058505
31
0.000000
39
0.000000
0
LINE
8
_2-7_家具
6
CONTINUOUS
62
4
10
2859.017147
20
1027.058505
30
0.000000
11
2856.019030
21
1041.725179
31
0.000000
39
0.000000
0
LINE
8
_2-7_家具
6
CONTINUOUS
62
4
10
2856.019030
20
1041.725179
30
0.000000
11
2854.823435
21
1073.002306
31
0.000000
39
0.000000
0
LINE
8
_2-7_家具
6
CONTINUOUS
62
4
10
2854.823435
20
1073.002306
30
0.000000
11
2851.823913
21
1087.668981
31
0.000000
39
0.000000
0
LINE
8
_2-7_家具
6
CONTINUOUS
62
4
10
2851.823913
20
1087.668981
30
0.000000
11
2844.547086
21
1093.853710
31
0.000000
39
0.000000
0
LINE
8
_2-7_家具
6
CONTINUOUS
62
4
10
2844.547086
20
1093.853710
30
0.000000
11
2835.005514
21
1095.090655
31
0.000000
39
0.000000
0
LINE
8
_2-7_家具
6
CONTINUOUS
62
4
10
2835.005514
20
1095.090655
30
0.000000
11
2826.217686
21
1091.379818
31
0.000000
39
0.000000
0
LINE
8
_2-7_家具
6
CONTINUOUS
62
4
10
2826.217686
20
1091.379818
30
0.000000
11
2821.079863
21
1081.660943
31
0.000000
39
0.000000
0
LINE
8
_2-7_家具
6
CONTINUOUS
62
4
10
2821.079863
20
1081.660943
30
0.000000
11
2818.857266
21
1041.725179
31
0.000000
39
0.000000
0
LINE
8
_2-7_家具
6
CONTINUOUS
62
4
10
2818.857266
20
1041.725179
30
0.000000
11
2815.857744
21
1027.058505
31
0.000000
39
0.000000
0
LINE
8
_2-7_家具
6
CONTINUOUS
62
4
10
2815.857744
20
1027.058505
30
0.000000
11
2808.580917
21
1020.873752
31
0.000000
39
0.000000
0
LINE
8
_2-7_家具
6
CONTINUOUS
62
4
10
2808.580917
20
1020.873752
30
0.000000
11
2799.039345
21
1019.636814
31
0.000000
39
0.000000
0
LINE
8
_2-7_家具
6
CONTINUOUS
62
4
10
2799.039345
20
1019.636814
30
0.000000
11
2790.251517
21
1023.347659
31
0.000000
39
0.000000
0
LINE
8
_2-7_家具
6
CONTINUOUS
62
4
10
2790.251517
20
1023.347659
30
0.000000
11
2785.113694
21
1033.066535
31
0.000000
39
0.000000
0
LINE
8
_2-7_家具
6
CONTINUOUS
62
4
10
2785.113694
20
1033.066535
30
0.000000
11
2782.891097
21
1073.002306
31
0.000000
39
0.000000
0
LINE
8
_2-7_家具
6
CONTINUOUS
62
4
10
2782.891097
20
1073.002306
30
0.000000
11
2779.891574
21
1087.668981
31
0.000000
39
0.000000
0
LINE
8
_2-7_家具
6
CONTINUOUS
62
4
10
2779.891574
20
1087.668981
30
0.000000
11
2772.615450
21
1093.853710
31
0.000000
39
0.000000
0
LINE
8
_2-7_家具
6
CONTINUOUS
62
4
10
2772.615450
20
1093.853710
30
0.000000
11
2763.073175
21
1095.090655
31
0.000000
39
0.000000
0
LINE
8
_2-7_家具
6
CONTINUOUS
62
4
10
2763.073175
20
1095.090655
30
0.000000
11
2754.285348
21
1091.379818
31
0.000000
39
0.000000
0
LINE
8
_2-7_家具
6
CONTINUOUS
62
4
10
2754.285348
20
1091.379818
30
0.000000
11
2749.147524
21
1081.660943
31
0.000000
39
0.000000
0
LINE
8
_2-7_家具
6
CONTINUOUS
62
4
10
2749.147524
20
1081.660943
30
0.000000
11
2747.385744
21
1051.974181
31
0.000000
39
0.000000
0
LINE
8
_2-7_家具
6
CONTINUOUS
62
4
10
2747.385744
20
1051.974181
30
0.000000
11
2743.925405
21
1027.058505
31
0.000000
39
0.000000
0
LINE
8
_2-7_家具
6
CONTINUOUS
62
4
10
2743.925405
20
1027.058505
30
0.000000
11
2736.649280
21
1020.873752
31
0.000000
39
0.000000
0
LINE
8
_2-7_家具
6
CONTINUOUS
62
4
10
2736.649280
20
1020.873752
30
0.000000
11
2727.107006
21
1019.636814
31
0.000000
39
0.000000
0
LINE
8
_2-7_家具
6
CONTINUOUS
62
4
10
2727.107006
20
1019.636814
30
0.000000
11
2718.319178
21
1023.347659
31
0.000000
39
0.000000
0
LINE
8
_2-7_家具
6
CONTINUOUS
62
4
10
2718.319178
20
1023.347659
30
0.000000
11
2713.181355
21
1033.066535
31
0.000000
39
0.000000
0
LINE
8
_2-7_家具
6
CONTINUOUS
62
4
10
2713.181355
20
1033.066535
30
0.000000
11
2709.930350
21
1081.660943
31
0.000000
39
0.000000
0
LINE
8
_2-7_家具
6
CONTINUOUS
62
4
10
2709.930350
20
1081.660943
30
0.000000
11
2704.729305
21
1091.468171
31
0.000000
39
0.000000
0
LINE
8
_2-7_家具
6
CONTINUOUS
62
4
10
2704.729305
20
1091.468171
30
0.000000
11
2690.637872
21
1095.797482
31
0.000000
39
0.000000
0
LINE
8
_2-7_家具
6
CONTINUOUS
62
4
10
2690.637872
20
1095.797482
30
0.000000
11
2681.976488
21
1091.909938
31
0.000000
39
0.000000
0
LINE
8
_2-7_家具
6
CONTINUOUS
62
4
10
2681.976488
20
1091.909938
30
0.000000
11
2676.251405
21
1074.681019
31
0.000000
39
0.000000
0
LINE
8
_2-7_家具
6
CONTINUOUS
62
4
10
2676.251405
20
1074.681019
30
0.000000
11
2676.251405
21
1044.375777
31
0.000000
39
0.000000
0
LINE
8
_2-7_家具
6
CONTINUOUS
62
4
10
2676.251405
20
1044.375777
30
0.000000
11
2679.186300
21
1016.956760
31
0.000000
39
0.000000
0
LINE
8
_2-7_家具
6
CONTINUOUS
62
4
10
3074.814163
20
1016.956760
30
0.000000
11
3075.533486
21
1016.999172
31
0.000000
39
0.000000
0
LINE
8
_2-7_家具
6
CONTINUOUS
62
4
10
2679.186300
20
1016.956760
30
0.000000
11
2678.475406
21
1016.806542
31
0.000000
39
0.000000
0
LINE
8
_2-7_家具
6
CONTINUOUS
62
4
10
4461.710415
20
1056.170264
30
0.000000
11
4463.187697
21
1006.980008
31
0.000000
39
0.000000
0
LINE
8
_2-7_家具
6
CONTINUOUS
62
4
10
4458.264125
20
1072.338771
30
0.000000
11
4461.710415
21
1056.170264
31
0.000000
39
0.000000
0
LINE
8
_2-7_家具
6
CONTINUOUS
62
4
10
4452.520075
20
1082.719456
30
0.000000
11
4458.264125
21
1072.338771
31
0.000000
39
0.000000
0
LINE
8
_2-7_家具
6
CONTINUOUS
62
4
10
4443.387337
20
1086.784296
30
0.000000
11
4452.520075
21
1082.719456
31
0.000000
39
0.000000
0
LINE
8
_2-7_家具
6
CONTINUOUS
62
4
10
4433.537384
20
1085.080139
30
0.000000
11
4443.387337
21
1086.784296
31
0.000000
39
0.000000
0
LINE
8
_2-7_家具
6
CONTINUOUS
62
4
10
4425.908622
20
1078.219521
30
0.000000
11
4433.537384
21
1085.080139
31
0.000000
39
0.000000
0
LINE
8
_2-7_家具
6
CONTINUOUS
62
4
10
4422.329567
20
1052.872974
30
0.000000
11
4425.908622
21
1078.219521
31
0.000000
39
0.000000
0
LINE
8
_2-7_家具
6
CONTINUOUS
62
4
10
4420.607827
20
1023.404067
30
0.000000
11
4422.329567
21
1052.872974
31
0.000000
39
0.000000
0
LINE
8
_2-7_家具
6
CONTINUOUS
62
4
10
4415.729213
20
1014.155243
30
0.000000
11
4420.607827
21
1023.404067
31
0.000000
39
0.000000
0
LINE
8
_2-7_家具
6
CONTINUOUS
62
4
10
4407.283485
20
1010.622777
30
0.000000
11
4415.729213
21
1014.155243
31
0.000000
39
0.000000
0
LINE
8
_2-7_家具
6
CONTINUOUS
62
4
10
4398.038353
20
1011.814089
30
0.000000
11
4407.283485
21
1010.622777
31
0.000000
39
0.000000
0
LINE
8
_2-7_家具
6
CONTINUOUS
62
4
10
4391.107841
20
1017.653166
30
0.000000
11
4398.038353
21
1011.814089
31
0.000000
39
0.000000
0
LINE
8
_2-7_家具
6
CONTINUOUS
62
4
10
4388.246704
20
1031.873550
30
0.000000
11
4391.107841
21
1017.653166
31
0.000000
39
0.000000
0
LINE
8
_2-7_家具
6
CONTINUOUS
62
4
10
4387.051812
20
1063.150685
30
0.000000
11
4388.246704
21
1031.873550
31
0.000000
39
0.000000
0
LINE
8
_2-7_家具
6
CONTINUOUS
62
4
10
4383.914607
20
1078.263650
30
0.000000
11
4387.051812
21
1063.150685
31
0.000000
39
0.000000
0
LINE
8
_2-7_家具
6
CONTINUOUS
62
4
10
4376.291465
20
1084.794027
30
0.000000
11
4383.914607
21
1078.263650
31
0.000000
39
0.000000
0
LINE
8
_2-7_家具
6
CONTINUOUS
62
4
10
4366.452048
20
1086.076618
30
0.000000
11
4376.291465
21
1084.794027
31
0.000000
39
0.000000
0
LINE
8
_2-7_家具
6
CONTINUOUS
62
4
10
4357.323525
20
1082.187401
30
0.000000
11
4366.452048
21
1086.076618
31
0.000000
39
0.000000
0
LINE
8
_2-7_家具
6
CONTINUOUS
62
4
10
4351.927195
20
1072.003444
30
0.000000
11
4357.323525
21
1082.187401
31
0.000000
39
0.000000
0
LINE
8
_2-7_家具
6
CONTINUOUS
62
4
10
4348.676893
20
1023.409038
30
0.000000
11
4351.927195
21
1072.003444
31
0.000000
39
0.000000
0
LINE
8
_2-7_家具
6
CONTINUOUS
62
4
10
4343.796874
20
1014.155243
30
0.000000
11
4348.676893
21
1023.409038
31
0.000000
39
0.000000
0
LINE
8
_2-7_家具
6
CONTINUOUS
62
4
10
4335.351146
20
1010.622777
30
0.000000
11
4343.796874
21
1014.155243
31
0.000000
39
0.000000
0
LINE
8
_2-7_家具
6
CONTINUOUS
62
4
10
4326.106014
20
1011.814089
30
0.000000
11
4335.351146
21
1010.622777
31
0.000000
39
0.000000
0
LINE
8
_2-7_家具
6
CONTINUOUS
62
4
10
4319.175502
20
1017.653166
30
0.000000
11
4326.106014
21
1011.814089
31
0.000000
39
0.000000
0
LINE
8
_2-7_家具
6
CONTINUOUS
62
4
10
4316.312960
20
1031.885688
30
0.000000
11
4319.175502
21
1017.653166
31
0.000000
39
0.000000
0
LINE
8
_2-7_家具
6
CONTINUOUS
62
4
10
4314.055943
20
1071.996053
30
0.000000
11
4316.312960
21
1031.885688
31
0.000000
39
0.000000
0
LINE
8
_2-7_家具
6
CONTINUOUS
62
4
10
4308.657505
20
1082.187401
30
0.000000
11
4314.055943
21
1071.996053
31
0.000000
39
0.000000
0
LINE
8
_2-7_家具
6
CONTINUOUS
62
4
10
4299.528982
20
1086.076629
30
0.000000
11
4308.657505
21
1082.187401
31
0.000000
39
0.000000
0
LINE
8
_2-7_家具
6
CONTINUOUS
62
4
10
4289.690268
20
1084.794031
30
0.000000
11
4299.528982
21
1086.076629
31
0.000000
39
0.000000
0
LINE
8
_2-7_家具
6
CONTINUOUS
62
4
10
4282.066424
20
1078.263646
30
0.000000
11
4289.690268
21
1084.794031
31
0.000000
39
0.000000
0
LINE
8
_2-7_家具
6
CONTINUOUS
62
4
10
4278.931326
20
1063.162816
30
0.000000
11
4282.066424
21
1078.263646
31
0.000000
39
0.000000
0
LINE
8
_2-7_家具
6
CONTINUOUS
62
4
10
4276.742447
20
1023.401647
30
0.000000
11
4278.931326
21
1063.162816
31
0.000000
39
0.000000
0
LINE
8
_2-7_家具
6
CONTINUOUS
62
4
10
4271.864535
20
1014.155243
30
0.000000
11
4276.742447
21
1023.401647
31
0.000000
39
0.000000
0
LINE
8
_2-7_家具
6
CONTINUOUS
62
4
10
4263.418808
20
1010.622777
30
0.000000
11
4271.864535
21
1014.155243
31
0.000000
39
0.000000
0
LINE
8
_2-7_家具
6
CONTINUOUS
62
4
10
4254.173676
20
1011.814089
30
0.000000
11
4263.418808
21
1010.622777
31
0.000000
39
0.000000
0
LINE
8
_2-7_家具
6
CONTINUOUS
62
4
10
4247.243164
20
1017.653166
30
0.000000
11
4254.173676
21
1011.814089
31
0.000000
39
0.000000
0
LINE
8
_2-7_家具
6
CONTINUOUS
62
4
10
4244.382027
20
1031.873550
30
0.000000
11
4247.243164
21
1017.653166
31
0.000000
39
0.000000
0
LINE
8
_2-7_家具
6
CONTINUOUS
62
4
10
4243.187135
20
1063.150685
30
0.000000
11
4244.382027
21
1031.873550
31
0.000000
39
0.000000
0
LINE
8
_2-7_家具
6
CONTINUOUS
62
4
10
4240.049930
20
1078.263650
30
0.000000
11
4243.187135
21
1063.150685
31
0.000000
39
0.000000
0
LINE
8
_2-7_家具
6
CONTINUOUS
62
4
10
4232.426788
20
1084.794027
30
0.000000
11
4240.049930
21
1078.263650
31
0.000000
39
0.000000
0
LINE
8
_2-7_家具
6
CONTINUOUS
62
4
10
4222.587371
20
1086.076618
30
0.000000
11
4232.426788
21
1084.794027
31
0.000000
39
0.000000
0
LINE
8
_2-7_家具
6
CONTINUOUS
62
4
10
4213.458848
20
1082.187401
30
0.000000
11
4222.587371
21
1086.076618
31
0.000000
39
0.000000
0
LINE
8
_2-7_家具
6
CONTINUOUS
62
4
10
4208.060410
20
1071.996051
30
0.000000
11
4213.458848
21
1082.187401
31
0.000000
39
0.000000
0
LINE
8
_2-7_家具
6
CONTINUOUS
62
4
10
4205.803393
20
1031.885696
30
0.000000
11
4208.060410
21
1071.996051
31
0.000000
39
0.000000
0
LINE
8
_2-7_家具
6
CONTINUOUS
62
4
10
4202.940851
20
1017.653174
30
0.000000
11
4205.803393
21
1031.885696
31
0.000000
39
0.000000
0
LINE
8
_2-7_家具
6
CONTINUOUS
62
4
10
4196.010339
20
1011.814066
30
0.000000
11
4202.940851
21
1017.653174
31
0.000000
39
0.000000
0
LINE
8
_2-7_家具
6
CONTINUOUS
62
4
10
4186.765207
20
1010.622777
30
0.000000
11
4196.010339
21
1011.814066
31
0.000000
39
0.000000
0
LINE
8
_2-7_家具
6
CONTINUOUS
62
4
10
4178.319479
20
1014.155243
30
0.000000
11
4186.765207
21
1010.622777
31
0.000000
39
0.000000
0
LINE
8
_2-7_家具
6
CONTINUOUS
62
4
10
4173.441568
20
1023.401647
30
0.000000
11
4178.319479
21
1014.155243
31
0.000000
39
0.000000
0
LINE
8
_2-7_家具
6
CONTINUOUS
62
4
10
4171.252689
20
1063.162824
30
0.000000
11
4173.441568
21
1023.401647
31
0.000000
39
0.000000
0
LINE
8
_2-7_家具
6
CONTINUOUS
62
4
10
4168.117591
20
1078.263650
30
0.000000
11
4171.252689
21
1063.162824
31
0.000000
39
0.000000
0
LINE
8
_2-7_家具
6
CONTINUOUS
62
4
10
4160.494449
20
1084.794027
30
0.000000
11
4168.117591
21
1078.263650
31
0.000000
39
0.000000
0
LINE
8
_2-7_家具
6
CONTINUOUS
62
4
10
4150.655735
20
1086.076618
30
0.000000
11
4160.494449
21
1084.794027
31
0.000000
39
0.000000
0
LINE
8
_2-7_家具
6
CONTINUOUS
62
4
10
4141.526510
20
1082.187401
30
0.000000
11
4150.655735
21
1086.076618
31
0.000000
39
0.000000
0
LINE
8
_2-7_家具
6
CONTINUOUS
62
4
10
4136.128774
20
1071.998475
30
0.000000
11
4141.526510
21
1082.187401
31
0.000000
39
0.000000
0
LINE
8
_2-7_家具
6
CONTINUOUS
62
4
10
4134.327656
20
1042.093859
30
0.000000
11
4136.128774
21
1071.998475
31
0.000000
39
0.000000
0
LINE
8
_2-7_家具
6
CONTINUOUS
62
4
10
4130.989546
20
1017.617699
30
0.000000
11
4134.327656
21
1042.093859
31
0.000000
39
0.000000
0
LINE
8
_2-7_家具
6
CONTINUOUS
62
4
10
4124.077298
20
1011.814066
30
0.000000
11
4130.989546
21
1017.617699
31
0.000000
39
0.000000
0
LINE
8
_2-7_家具
6
CONTINUOUS
62
4
10
4114.832868
20
1010.622777
30
0.000000
11
4124.077298
21
1011.814066
31
0.000000
39
0.000000
0
LINE
8
_2-7_家具
6
CONTINUOUS
62
4
10
4106.386438
20
1014.155243
30
0.000000
11
4114.832868
21
1010.622777
31
0.000000
39
0.000000
0
LINE
8
_2-7_家具
6
CONTINUOUS
62
4
10
4101.507122
20
1023.409038
30
0.000000
11
4106.386438
21
1014.155243
31
0.000000
39
0.000000
0
LINE
8
_2-7_家具
6
CONTINUOUS
62
4
10
4098.256117
20
1072.004147
30
0.000000
11
4101.507122
21
1023.409038
31
0.000000
39
0.000000
0
LINE
8
_2-7_家具
6
CONTINUOUS
62
4
10
4092.774086
20
1082.297828
30
0.000000
11
4098.256117
21
1072.004147
31
0.000000
39
0.000000
0
LINE
8
_2-7_家具
6
CONTINUOUS
62
4
10
4078.256960
20
1086.787378
30
0.000000
11
4092.774086
21
1082.297828
31
0.000000
39
0.000000
0
LINE
8
_2-7_家具
6
CONTINUOUS
62
4
10
4069.154428
20
1082.649056
30
0.000000
11
4078.256960
21
1086.787378
31
0.000000
39
0.000000
0
LINE
8
_2-7_家具
6
CONTINUOUS
62
4
10
4063.203151
20
1064.880642
30
0.000000
11
4069.154428
21
1082.649056
31
0.000000
39
0.000000
0
LINE
8
_2-7_家具
6
CONTINUOUS
62
4
10
4063.187697
20
1034.281292
30
0.000000
11
4063.203151
21
1064.880642
31
0.000000
39
0.000000
0
LINE
8
_2-7_家具
6
CONTINUOUS
62
4
10
4066.129617
20
1006.787378
30
0.000000
11
4063.187697
21
1034.281292
31
0.000000
39
0.000000
0
LINE
8
_2-7_家具
6
CONTINUOUS
62
4
10
4462.468374
20
1006.937596
30
0.000000
11
4461.000926
21
1056.003219
31
0.000000
39
0.000000
0
LINE
8
_2-7_家具
6
CONTINUOUS
62
4
10
4461.000926
20
1056.003219
30
0.000000
11
4457.624180
21
1071.877382
31
0.000000
39
0.000000
0
LINE
8
_2-7_家具
6
CONTINUOUS
62
4
10
4457.624180
20
1071.877382
30
0.000000
11
4452.108431
21
1081.890774
31
0.000000
39
0.000000
0
LINE
8
_2-7_家具
6
CONTINUOUS
62
4
10
4452.108431
20
1081.890774
30
0.000000
11
4443.322008
21
1085.778333
31
0.000000
39
0.000000
0
LINE
8
_2-7_家具
6
CONTINUOUS
62
4
10
4443.322008
20
1085.778333
30
0.000000
11
4433.779734
21
1084.129062
31
0.000000
39
0.000000
0
LINE
8
_2-7_家具
6
CONTINUOUS
62
4
10
4433.779734
20
1084.129062
30
0.000000
11
4426.502204
21
1077.649817
31
0.000000
39
0.000000
0
LINE
8
_2-7_家具
6
CONTINUOUS
62
4
10
4426.502204
20
1077.649817
30
0.000000
11
4423.042568
21
1052.734132
31
0.000000
39
0.000000
0
LINE
8
_2-7_家具
6
CONTINUOUS
62
4
10
4423.042568
20
1052.734132
30
0.000000
11
4421.280788
21
1023.047371
31
0.000000
39
0.000000
0
LINE
8
_2-7_家具
6
CONTINUOUS
62
4
10
4421.280788
20
1023.047371
30
0.000000
11
4416.142262
21
1013.328496
31
0.000000
39
0.000000
0
LINE
8
_2-7_家具
6
CONTINUOUS
62
4
10
4416.142262
20
1013.328496
30
0.000000
11
4407.355839
21
1009.617658
31
0.000000
39
0.000000
0
LINE
8
_2-7_家具
6
CONTINUOUS
62
4
10
4407.355839
20
1009.617658
30
0.000000
11
4397.813565
21
1010.854604
31
0.000000
39
0.000000
0
LINE
8
_2-7_家具
6
CONTINUOUS
62
4
10
4397.813565
20
1010.854604
30
0.000000
11
4390.536035
21
1017.039341
31
0.000000
39
0.000000
0
LINE
8
_2-7_家具
6
CONTINUOUS
62
4
10
4390.536035
20
1017.039341
30
0.000000
11
4387.537918
21
1031.706015
31
0.000000
39
0.000000
0
LINE
8
_2-7_家具
6
CONTINUOUS
62
4
10
4387.537918
20
1031.706015
30
0.000000
11
4386.342323
21
1062.983143
31
0.000000
39
0.000000
0
LINE
8
_2-7_家具
6
CONTINUOUS
62
4
10
4386.342323
20
1062.983143
30
0.000000
11
4383.342801
21
1077.649817
31
0.000000
39
0.000000
0
LINE
8
_2-7_家具
6
CONTINUOUS
62
4
10
4383.342801
20
1077.649817
30
0.000000
11
4376.065974
21
1083.834546
31
0.000000
39
0.000000
0
LINE
8
_2-7_家具
6
CONTINUOUS
62
4
10
4376.065974
20
1083.834546
30
0.000000
11
4366.524402
21
1085.071491
31
0.000000
39
0.000000
0
LINE
8
_2-7_家具
6
CONTINUOUS
62
4
10
4366.524402
20
1085.071491
30
0.000000
11
4357.736574
21
1081.360654
31
0.000000
39
0.000000
0
LINE
8
_2-7_家具
6
CONTINUOUS
62
4
10
4357.736574
20
1081.360654
30
0.000000
11
4352.598751
21
1071.641779
31
0.000000
39
0.000000
0
LINE
8
_2-7_家具
6
CONTINUOUS
62
4
10
4352.598751
20
1071.641779
30
0.000000
11
4349.348449
21
1023.047371
31
0.000000
39
0.000000
0
LINE
8
_2-7_家具
6
CONTINUOUS
62
4
10
4349.348449
20
1023.047371
30
0.000000
11
4344.209923
21
1013.328496
31
0.000000
39
0.000000
0
LINE
8
_2-7_家具
6
CONTINUOUS
62
4
10
4344.209923
20
1013.328496
30
0.000000
11
4335.423500
21
1009.617658
31
0.000000
39
0.000000
0
LINE
8
_2-7_家具
6
CONTINUOUS
62
4
10
4335.423500
20
1009.617658
30
0.000000
11
4325.881226
21
1010.854604
31
0.000000
39
0.000000
0
LINE
8
_2-7_家具
6
CONTINUOUS
62
4
10
4325.881226
20
1010.854604
30
0.000000
11
4318.603696
21
1017.039341
31
0.000000
39
0.000000
0
LINE
8
_2-7_家具
6
CONTINUOUS
62
4
10
4318.603696
20
1017.039341
30
0.000000
11
4315.605579
21
1031.706015
31
0.000000
39
0.000000
0
LINE
8
_2-7_家具
6
CONTINUOUS
62
4
10
4315.605579
20
1031.706015
30
0.000000
11
4313.382280
21
1071.641779
31
0.000000
39
0.000000
0
LINE
8
_2-7_家具
6
CONTINUOUS
62
4
10
4313.382280
20
1071.641779
30
0.000000
11
4308.243754
21
1081.360654
31
0.000000
39
0.000000
0
LINE
8
_2-7_家具
6
CONTINUOUS
62
4
10
4308.243754
20
1081.360654
30
0.000000
11
4299.457331
21
1085.071507
31
0.000000
39
0.000000
0
LINE
8
_2-7_家具
6
CONTINUOUS
62
4
10
4299.457331
20
1085.071507
30
0.000000
11
4289.915057
21
1083.834546
31
0.000000
39
0.000000
0
LINE
8
_2-7_家具
6
CONTINUOUS
62
4
10
4289.915057
20
1083.834546
30
0.000000
11
4282.637527
21
1077.649817
31
0.000000
39
0.000000
0
LINE
8
_2-7_家具
6
CONTINUOUS
62
4
10
4282.637527
20
1077.649817
30
0.000000
11
4279.639410
21
1062.983143
31
0.000000
39
0.000000
0
LINE
8
_2-7_家具
6
CONTINUOUS
62
4
10
4279.639410
20
1062.983143
30
0.000000
11
4277.416110
21
1023.047371
31
0.000000
39
0.000000
0
LINE
8
_2-7_家具
6
CONTINUOUS
62
4
10
4277.416110
20
1023.047371
30
0.000000
11
4272.277584
21
1013.328496
31
0.000000
39
0.000000
0
LINE
8
_2-7_家具
6
CONTINUOUS
62
4
10
4272.277584
20
1013.328496
30
0.000000
11
4263.491162
21
1009.617658
31
0.000000
39
0.000000
0
LINE
8
_2-7_家具
6
CONTINUOUS
62
4
10
4263.491162
20
1009.617658
30
0.000000
11
4253.948887
21
1010.854604
31
0.000000
39
0.000000
0
LINE
8
_2-7_家具
6
CONTINUOUS
62
4
10
4253.948887
20
1010.854604
30
0.000000
11
4246.671358
21
1017.039341
31
0.000000
39
0.000000
0
LINE
8
_2-7_家具
6
CONTINUOUS
62
4
10
4246.671358
20
1017.039341
30
0.000000
11
4243.673240
21
1031.706015
31
0.000000
39
0.000000
0
LINE
8
_2-7_家具
6
CONTINUOUS
62
4
10
4243.673240
20
1031.706015
30
0.000000
11
4242.477646
21
1062.983143
31
0.000000
39
0.000000
0
LINE
8
_2-7_家具
6
CONTINUOUS
62
4
10
4242.477646
20
1062.983143
30
0.000000
11
4239.478124
21
1077.649817
31
0.000000
39
0.000000
0
LINE
8
_2-7_家具
6
CONTINUOUS
62
4
10
4239.478124
20
1077.649817
30
0.000000
11
4232.201297
21
1083.834546
31
0.000000
39
0.000000
0
LINE
8
_2-7_家具
6
CONTINUOUS
62
4
10
4232.201297
20
1083.834546
30
0.000000
11
4222.659725
21
1085.071491
31
0.000000
39
0.000000
0
LINE
8
_2-7_家具
6
CONTINUOUS
62
4
10
4222.659725
20
1085.071491
30
0.000000
11
4213.871897
21
1081.360654
31
0.000000
39
0.000000
0
LINE
8
_2-7_家具
6
CONTINUOUS
62
4
10
4213.871897
20
1081.360654
30
0.000000
11
4208.734074
21
1071.641779
31
0.000000
39
0.000000
0
LINE
8
_2-7_家具
6
CONTINUOUS
62
4
10
4208.734074
20
1071.641779
30
0.000000
11
4206.511477
21
1031.706015
31
0.000000
39
0.000000
0
LINE
8
_2-7_家具
6
CONTINUOUS
62
4
10
4206.511477
20
1031.706015
30
0.000000
11
4203.511954
21
1017.039341
31
0.000000
39
0.000000
0
LINE
8
_2-7_家具
6
CONTINUOUS
62
4
10
4203.511954
20
1017.039341
30
0.000000
11
4196.235127
21
1010.854588
31
0.000000
39
0.000000
0
LINE
8
_2-7_家具
6
CONTINUOUS
62
4
10
4196.235127
20
1010.854588
30
0.000000
11
4186.693556
21
1009.617650
31
0.000000
39
0.000000
0
LINE
8
_2-7_家具
6
CONTINUOUS
62
4
10
4186.693556
20
1009.617650
30
0.000000
11
4177.905728
21
1013.328496
31
0.000000
39
0.000000
0
LINE
8
_2-7_家具
6
CONTINUOUS
62
4
10
4177.905728
20
1013.328496
30
0.000000
11
4172.767904
21
1023.047371
31
0.000000
39
0.000000
0
LINE
8
_2-7_家具
6
CONTINUOUS
62
4
10
4172.767904
20
1023.047371
30
0.000000
11
4170.545307
21
1062.983143
31
0.000000
39
0.000000
0
LINE
8
_2-7_家具
6
CONTINUOUS
62
4
10
4170.545307
20
1062.983143
30
0.000000
11
4167.545785
21
1077.649817
31
0.000000
39
0.000000
0
LINE
8
_2-7_家具
6
CONTINUOUS
62
4
10
4167.545785
20
1077.649817
30
0.000000
11
4160.269661
21
1083.834546
31
0.000000
39
0.000000
0
LINE
8
_2-7_家具
6
CONTINUOUS
62
4
10
4160.269661
20
1083.834546
30
0.000000
11
4150.727386
21
1085.071491
31
0.000000
39
0.000000
0
LINE
8
_2-7_家具
6
CONTINUOUS
62
4
10
4150.727386
20
1085.071491
30
0.000000
11
4141.939559
21
1081.360654
31
0.000000
39
0.000000
0
LINE
8
_2-7_家具
6
CONTINUOUS
62
4
10
4141.939559
20
1081.360654
30
0.000000
11
4136.801735
21
1071.641779
31
0.000000
39
0.000000
0
LINE
8
_2-7_家具
6
CONTINUOUS
62
4
10
4136.801735
20
1071.641779
30
0.000000
11
4135.039955
21
1041.955017
31
0.000000
39
0.000000
0
LINE
8
_2-7_家具
6
CONTINUOUS
62
4
10
4135.039955
20
1041.955017
30
0.000000
11
4131.579616
21
1017.039341
31
0.000000
39
0.000000
0
LINE
8
_2-7_家具
6
CONTINUOUS
62
4
10
4131.579616
20
1017.039341
30
0.000000
11
4124.303491
21
1010.854588
31
0.000000
39
0.000000
0
LINE
8
_2-7_家具
6
CONTINUOUS
62
4
10
4124.303491
20
1010.854588
30
0.000000
11
4114.761217
21
1009.617650
31
0.000000
39
0.000000
0
LINE
8
_2-7_家具
6
CONTINUOUS
62
4
10
4114.761217
20
1009.617650
30
0.000000
11
4105.973389
21
1013.328496
31
0.000000
39
0.000000
0
LINE
8
_2-7_家具
6
CONTINUOUS
62
4
10
4105.973389
20
1013.328496
30
0.000000
11
4100.835566
21
1023.047371
31
0.000000
39
0.000000
0
LINE
8
_2-7_家具
6
CONTINUOUS
62
4
10
4100.835566
20
1023.047371
30
0.000000
11
4097.584561
21
1071.641779
31
0.000000
39
0.000000
0
LINE
8
_2-7_家具
6
CONTINUOUS
62
4
10
4097.584561
20
1071.641779
30
0.000000
11
4092.383516
21
1081.449007
31
0.000000
39
0.000000
0
LINE
8
_2-7_家具
6
CONTINUOUS
62
4
10
4092.383516
20
1081.449007
30
0.000000
11
4078.292083
21
1085.778318
31
0.000000
39
0.000000
0
LINE
8
_2-7_家具
6
CONTINUOUS
62
4
10
4078.292083
20
1085.778318
30
0.000000
11
4069.630699
21
1081.890774
31
0.000000
39
0.000000
0
LINE
8
_2-7_家具
6
CONTINUOUS
62
4
10
4069.630699
20
1081.890774
30
0.000000
11
4063.905615
21
1064.661855
31
0.000000
39
0.000000
0
LINE
8
_2-7_家具
6
CONTINUOUS
62
4
10
4063.905615
20
1064.661855
30
0.000000
11
4063.905615
21
1034.356613
31
0.000000
39
0.000000
0
LINE
8
_2-7_家具
6
CONTINUOUS
62
4
10
4063.905615
20
1034.356613
30
0.000000
11
4066.840511
21
1006.937596
31
0.000000
39
0.000000
0
LINE
8
_2-7_家具
6
CONTINUOUS
62
4
10
4462.468374
20
1006.937596
30
0.000000
11
4463.187697
21
1006.980008
31
0.000000
39
0.000000
0
LINE
8
_2-7_家具
6
CONTINUOUS
62
4
10
4066.840511
20
1006.937596
30
0.000000
11
4066.129617
21
1006.787378
31
0.000000
39
0.000000
0
LINE
8
_2-7_家具
6
CONTINUOUS
62
4
10
1971.371557
20
2983.672549
30
0.000000
11
1979.459651
21
2983.672549
31
0.000000
39
0.000000
0
LINE
8
_2-7_家具
6
CONTINUOUS
62
4
10
1979.459651
20
2983.672549
30
0.000000
11
1925.008488
21
2991.162134
31
0.000000
39
0.000000
0
LINE
8
_2-7_家具
6
CONTINUOUS
62
4
10
1925.008488
20
2991.162134
30
0.000000
11
1971.371557
21
2983.672549
31
0.000000
39
0.000000
0
LINE
8
_2-7_家具
6
CONTINUOUS
62
4
10
1925.008488
20
2991.162134
30
0.000000
11
1932.966978
21
2991.162096
31
0.000000
39
0.000000
0
LINE
8
_2-7_家具
6
CONTINUOUS
62
4
10
1932.966978
20
2991.162096
30
0.000000
11
1971.371557
21
2983.672549
31
0.000000
39
0.000000
0
LINE
8
_2-7_家具
6
CONTINUOUS
62
4
10
1987.279243
20
2965.591346
30
0.000000
11
2002.014110
21
2965.591346
31
0.000000
39
0.000000
0
LINE
8
_2-7_家具
6
CONTINUOUS
62
4
10
2002.014110
20
2965.591346
30
0.000000
11
1979.459651
21
2983.672549
31
0.000000
39
0.000000
0
LINE
8
_2-7_家具
6
CONTINUOUS
62
4
10
1979.459651
20
2983.672549
30
0.000000
11
1987.279243
21
2965.591346
31
0.000000
39
0.000000
0
LINE
8
_2-7_家具
6
CONTINUOUS
62
4
10
1971.371557
20
2983.672549
30
0.000000
11
1987.279243
21
2965.591346
31
0.000000
39
0.000000
0
LINE
8
_2-7_家具
6
CONTINUOUS
62
4
10
1971.371557
20
2947.510181
30
0.000000
11
1979.459651
21
2947.510181
31
0.000000
39
0.000000
0
LINE
8
_2-7_家具
6
CONTINUOUS
62
4
10
1979.459651
20
2947.510181
30
0.000000
11
2002.014110
21
2965.591346
31
0.000000
39
0.000000
0
LINE
8
_2-7_家具
6
CONTINUOUS
62
4
10
2002.014110
20
2965.591346
30
0.000000
11
1971.371557
21
2947.510181
31
0.000000
39
0.000000
0
LINE
8
_2-7_家具
6
CONTINUOUS
62
4
10
1987.279243
20
2965.591346
30
0.000000
11
1971.371557
21
2947.510181
31
0.000000
39
0.000000
0
LINE
8
_2-7_家具
6
CONTINUOUS
62
4
10
1932.966968
20
2940.020672
30
0.000000
11
1925.008478
21
2940.020672
31
0.000000
39
0.000000
0
LINE
8
_2-7_家具
6
CONTINUOUS
62
4
10
1925.008478
20
2940.020672
30
0.000000
11
1979.459651
21
2947.510181
31
0.000000
39
0.000000
0
LINE
8
_2-7_家具
6
CONTINUOUS
62
4
10
1979.459651
20
2947.510181
30
0.000000
11
1932.966968
21
2940.020672
31
0.000000
39
0.000000
0
LINE
8
_2-7_家具
6
CONTINUOUS
62
4
10
1971.371557
20
2947.510181
30
0.000000
11
1932.966968
21
2940.020672
31
0.000000
39
0.000000
0
LINE
8
_2-7_家具
6
CONTINUOUS
62
4
10
1916.748965
20
3009.339665
30
0.000000
11
1902.014110
21
3009.339665
31
0.000000
39
0.000000
0
LINE
8
_2-7_家具
6
CONTINUOUS
62
4
10
1902.014110
20
3009.339665
30
0.000000
11
1925.008488
21
2991.162134
31
0.000000
39
0.000000
0
LINE
8
_2-7_家具
6
CONTINUOUS
62
4
10
1925.008488
20
2991.162134
30
0.000000
11
1916.748965
21
3009.339665
31
0.000000
39
0.000000
0
LINE
8
_2-7_家具
6
CONTINUOUS
62
4
10
1932.966978
20
2991.162096
30
0.000000
11
1916.748965
21
3009.339665
31
0.000000
39
0.000000
0
LINE
8
_2-7_家具
6
CONTINUOUS
62
4
10
1932.656684
20
3027.421020
30
0.000000
11
1924.568564
21
3027.421058
31
0.000000
39
0.000000
0
LINE
8
_2-7_家具
6
CONTINUOUS
62
4
10
1924.568564
20
3027.421058
30
0.000000
11
1902.014110
21
3009.339665
31
0.000000
39
0.000000
0
LINE
8
_2-7_家具
6
CONTINUOUS
62
4
10
1902.014110
20
3009.339665
30
0.000000
11
1932.656684
21
3027.421020
31
0.000000
39
0.000000
0
LINE
8
_2-7_家具
6
CONTINUOUS
62
4
10
1916.748965
20
3009.339665
30
0.000000
11
1932.656684
21
3027.421020
31
0.000000
39
0.000000
0
LINE
8
_2-7_家具
6
CONTINUOUS
62
4
10
1971.371557
20
3071.297713
30
0.000000
11
1979.459651
21
3071.297751
31
0.000000
39
0.000000
0
LINE
8
_2-7_家具
6
CONTINUOUS
62
4
10
1979.459651
20
3071.297751
30
0.000000
11
1925.008488
21
3078.787374
31
0.000000
39
0.000000
0
LINE
8
_2-7_家具
6
CONTINUOUS
62
4
10
1925.008488
20
3078.787374
30
0.000000
11
1971.371557
21
3071.297713
31
0.000000
39
0.000000
0
LINE
8
_2-7_家具
6
CONTINUOUS
62
4
10
1925.008488
20
3078.787374
30
0.000000
11
1932.966978
21
3078.787374
31
0.000000
39
0.000000
0
LINE
8
_2-7_家具
6
CONTINUOUS
62
4
10
1932.966978
20
3078.787374
30
0.000000
11
1971.371557
21
3071.297713
31
0.000000
39
0.000000
0
LINE
8
_2-7_家具
6
CONTINUOUS
62
4
10
1987.279243
20
3053.216472
30
0.000000
11
2002.014110
21
3053.216472
31
0.000000
39
0.000000
0
LINE
8
_2-7_家具
6
CONTINUOUS
62
4
10
2002.014110
20
3053.216472
30
0.000000
11
1979.459651
21
3071.297751
31
0.000000
39
0.000000
0
LINE
8
_2-7_家具
6
CONTINUOUS
62
4
10
1979.459651
20
3071.297751
30
0.000000
11
1987.279243
21
3053.216472
31
0.000000
39
0.000000
0
LINE
8
_2-7_家具
6
CONTINUOUS
62
4
10
1971.371557
20
3071.297713
30
0.000000
11
1987.279243
21
3053.216472
31
0.000000
39
0.000000
0
LINE
8
_2-7_家具
6
CONTINUOUS
62
4
10
1971.371557
20
3035.135117
30
0.000000
11
1979.459651
21
3035.135155
31
0.000000
39
0.000000
0
LINE
8
_2-7_家具
6
CONTINUOUS
62
4
10
1979.459651
20
3035.135155
30
0.000000
11
2002.014110
21
3053.216472
31
0.000000
39
0.000000
0
LINE
8
_2-7_家具
6
CONTINUOUS
62
4
10
2002.014110
20
3053.216472
30
0.000000
11
1971.371557
21
3035.135117
31
0.000000
39
0.000000
0
LINE
8
_2-7_家具
6
CONTINUOUS
62
4
10
1987.279243
20
3053.216472
30
0.000000
11
1971.371557
21
3035.135117
31
0.000000
39
0.000000
0
LINE
8
_2-7_家具
6
CONTINUOUS
62
4
10
1924.568564
20
3027.421058
30
0.000000
11
1979.459651
21
3035.135155
31
0.000000
39
0.000000
0
LINE
8
_2-7_家具
6
CONTINUOUS
62
4
10
1979.459651
20
3035.135155
30
0.000000
11
1932.656684
21
3027.421020
31
0.000000
39
0.000000
0
LINE
8
_2-7_家具
6
CONTINUOUS
62
4
10
1971.371557
20
3035.135117
30
0.000000
11
1932.656684
21
3027.421020
31
0.000000
39
0.000000
0
LINE
8
_2-7_家具
6
CONTINUOUS
62
4
10
1916.748965
20
3096.964526
30
0.000000
11
1902.014110
21
3096.964564
31
0.000000
39
0.000000
0
LINE
8
_2-7_家具
6
CONTINUOUS
62
4
10
1902.014110
20
3096.964564
30
0.000000
11
1925.008488
21
3078.787374
31
0.000000
39
0.000000
0
LINE
8
_2-7_家具
6
CONTINUOUS
62
4
10
1925.008488
20
3078.787374
30
0.000000
11
1916.748965
21
3096.964526
31
0.000000
39
0.000000
0
LINE
8
_2-7_家具
6
CONTINUOUS
62
4
10
1932.966978
20
3078.787374
30
0.000000
11
1916.748965
21
3096.964526
31
0.000000
39
0.000000
0
LINE
8
_2-7_家具
6
CONTINUOUS
62
4
10
1932.966968
20
3114.845876
30
0.000000
11
1925.008478
21
3114.845876
31
0.000000
39
0.000000
0
LINE
8
_2-7_家具
6
CONTINUOUS
62
4
10
1925.008478
20
3114.845876
30
0.000000
11
1902.014110
21
3096.964564
31
0.000000
39
0.000000
0
LINE
8
_2-7_家具
6
CONTINUOUS
62
4
10
1902.014110
20
3096.964564
30
0.000000
11
1932.966968
21
3114.845876
31
0.000000
39
0.000000
0
LINE
8
_2-7_家具
6
CONTINUOUS
62
4
10
1916.748965
20
3096.964526
30
0.000000
11
1932.966968
21
3114.845876
31
0.000000
39
0.000000
0
LINE
8
_2-7_家具
6
CONTINUOUS
62
4
10
1971.371557
20
3158.497565
30
0.000000
11
1979.459651
21
3158.497603
31
0.000000
39
0.000000
0
LINE
8
_2-7_家具
6
CONTINUOUS
62
4
10
1979.459651
20
3158.497603
30
0.000000
11
1925.008488
21
3165.987188
31
0.000000
39
0.000000
0
LINE
8
_2-7_家具
6
CONTINUOUS
62
4
10
1925.008488
20
3165.987188
30
0.000000
11
1971.371557
21
3158.497565
31
0.000000
39
0.000000
0
LINE
8
_2-7_家具
6
CONTINUOUS
62
4
10
1925.008488
20
3165.987188
30
0.000000
11
1932.966978
21
3165.987188
31
0.000000
39
0.000000
0
LINE
8
_2-7_家具
6
CONTINUOUS
62
4
10
1932.966978
20
3165.987188
30
0.000000
11
1971.371557
21
3158.497565
31
0.000000
39
0.000000
0
LINE
8
_2-7_家具
6
CONTINUOUS
62
4
10
1987.279243
20
3140.416513
30
0.000000
11
2002.014110
21
3140.416551
31
0.000000
39
0.000000
0
LINE
8
_2-7_家具
6
CONTINUOUS
62
4
10
2002.014110
20
3140.416551
30
0.000000
11
1979.459651
21
3158.497603
31
0.000000
39
0.000000
0
LINE
8
_2-7_家具
6
CONTINUOUS
62
4
10
1979.459651
20
3158.497603
30
0.000000
11
1987.279243
21
3140.416513
31
0.000000
39
0.000000
0
LINE
8
_2-7_家具
6
CONTINUOUS
62
4
10
1971.371557
20
3158.497565
30
0.000000
11
1987.279243
21
3140.416513
31
0.000000
39
0.000000
0
LINE
8
_2-7_家具
6
CONTINUOUS
62
4
10
1971.371557
20
3122.335272
30
0.000000
11
1979.459651
21
3122.335272
31
0.000000
39
0.000000
0
LINE
8
_2-7_家具
6
CONTINUOUS
62
4
10
1979.459651
20
3122.335272
30
0.000000
11
2002.014110
21
3140.416551
31
0.000000
39
0.000000
0
LINE
8
_2-7_家具
6
CONTINUOUS
62
4
10
2002.014110
20
3140.416551
30
0.000000
11
1971.371557
21
3122.335272
31
0.000000
39
0.000000
0
LINE
8
_2-7_家具
6
CONTINUOUS
62
4
10
1987.279243
20
3140.416513
30
0.000000
11
1971.371557
21
3122.335272
31
0.000000
39
0.000000
0
LINE
8
_2-7_家具
6
CONTINUOUS
62
4
10
1925.008478
20
3114.845876
30
0.000000
11
1979.459651
21
3122.335272
31
0.000000
39
0.000000
0
LINE
8
_2-7_家具
6
CONTINUOUS
62
4
10
1979.459651
20
3122.335272
30
0.000000
11
1932.966968
21
3114.845876
31
0.000000
39
0.000000
0
LINE
8
_2-7_家具
6
CONTINUOUS
62
4
10
1971.371557
20
3122.335272
30
0.000000
11
1932.966968
21
3114.845876
31
0.000000
39
0.000000
0
LINE
8
_2-7_家具
6
CONTINUOUS
62
4
10
1916.748965
20
3184.164756
30
0.000000
11
1902.014110
21
3184.164756
31
0.000000
39
0.000000
0
LINE
8
_2-7_家具
6
CONTINUOUS
62
4
10
1902.014110
20
3184.164756
30
0.000000
11
1925.008488
21
3165.987188
31
0.000000
39
0.000000
0
LINE
8
_2-7_家具
6
CONTINUOUS
62
4
10
1925.008488
20
3165.987188
30
0.000000
11
1916.748965
21
3184.164756
31
0.000000
39
0.000000
0
LINE
8
_2-7_家具
6
CONTINUOUS
62
4
10
1932.966978
20
3165.987188
30
0.000000
11
1916.748965
21
3184.164756
31
0.000000
39
0.000000
0
LINE
8
_2-7_家具
6
CONTINUOUS
62
4
10
1932.656684
20
3202.246187
30
0.000000
11
1924.568564
21
3202.246187
31
0.000000
39
0.000000
0
LINE
8
_2-7_家具
6
CONTINUOUS
62
4
10
1924.568564
20
3202.246187
30
0.000000
11
1902.014110
21
3184.164756
31
0.000000
39
0.000000
0
LINE
8
_2-7_家具
6
CONTINUOUS
62
4
10
1902.014110
20
3184.164756
30
0.000000
11
1932.656684
21
3202.246187
31
0.000000
39
0.000000
0
LINE
8
_2-7_家具
6
CONTINUOUS
62
4
10
1916.748965
20
3184.164756
30
0.000000
11
1932.656684
21
3202.246187
31
0.000000
39
0.000000
0
LINE
8
_2-7_家具
6
CONTINUOUS
62
4
10
1971.371557
20
3246.122842
30
0.000000
11
1979.459651
21
3246.122842
31
0.000000
39
0.000000
0
LINE
8
_2-7_家具
6
CONTINUOUS
62
4
10
1979.459651
20
3246.122842
30
0.000000
11
1925.008488
21
3253.612465
31
0.000000
39
0.000000
0
LINE
8
_2-7_家具
6
CONTINUOUS
62
4
10
1925.008488
20
3253.612465
30
0.000000
11
1971.371557
21
3246.122842
31
0.000000
39
0.000000
0
LINE
8
_2-7_家具
6
CONTINUOUS
62
4
10
1925.008488
20
3253.612465
30
0.000000
11
1932.966978
21
3253.612389
31
0.000000
39
0.000000
0
LINE
8
_2-7_家具
6
CONTINUOUS
62
4
10
1932.966978
20
3253.612389
30
0.000000
11
1971.371557
21
3246.122842
31
0.000000
39
0.000000
0
LINE
8
_2-7_家具
6
CONTINUOUS
62
4
10
1987.279243
20
3228.041714
30
0.000000
11
2002.014110
21
3228.041714
31
0.000000
39
0.000000
0
LINE
8
_2-7_家具
6
CONTINUOUS
62
4
10
2002.014110
20
3228.041714
30
0.000000
11
1979.459651
21
3246.122842
31
0.000000
39
0.000000
0
LINE
8
_2-7_家具
6
CONTINUOUS
62
4
10
1979.459651
20
3246.122842
30
0.000000
11
1987.279243
21
3228.041714
31
0.000000
39
0.000000
0
LINE
8
_2-7_家具
6
CONTINUOUS
62
4
10
1971.371557
20
3246.122842
30
0.000000
11
1987.279243
21
3228.041714
31
0.000000
39
0.000000
0
LINE
8
_2-7_家具
6
CONTINUOUS
62
4
10
1971.371557
20
3209.960436
30
0.000000
11
1979.459651
21
3209.960436
31
0.000000
39
0.000000
0
LINE
8
_2-7_家具
6
CONTINUOUS
62
4
10
1979.459651
20
3209.960436
30
0.000000
11
2002.014110
21
3228.041714
31
0.000000
39
0.000000
0
LINE
8
_2-7_家具
6
CONTINUOUS
62
4
10
2002.014110
20
3228.041714
30
0.000000
11
1971.371557
21
3209.960436
31
0.000000
39
0.000000
0
LINE
8
_2-7_家具
6
CONTINUOUS
62
4
10
1987.279243
20
3228.041714
30
0.000000
11
1971.371557
21
3209.960436
31
0.000000
39
0.000000
0
LINE
8
_2-7_家具
6
CONTINUOUS
62
4
10
1924.568564
20
3202.246187
30
0.000000
11
1979.459651
21
3209.960436
31
0.000000
39
0.000000
0
LINE
8
_2-7_家具
6
CONTINUOUS
62
4
10
1979.459651
20
3209.960436
30
0.000000
11
1932.656684
21
3202.246187
31
0.000000
39
0.000000
0
LINE
8
_2-7_家具
6
CONTINUOUS
62
4
10
1971.371557
20
3209.960436
30
0.000000
11
1932.656684
21
3202.246187
31
0.000000
39
0.000000
0
LINE
8
_2-7_家具
6
CONTINUOUS
62
4
10
1916.748965
20
3271.789882
30
0.000000
11
1902.014110
21
3271.789882
31
0.000000
39
0.000000
0
LINE
8
_2-7_家具
6
CONTINUOUS
62
4
10
1902.014110
20
3271.789882
30
0.000000
11
1925.008488
21
3253.612465
31
0.000000
39
0.000000
0
LINE
8
_2-7_家具
6
CONTINUOUS
62
4
10
1925.008488
20
3253.612465
30
0.000000
11
1916.748965
21
3271.789882
31
0.000000
39
0.000000
0
LINE
8
_2-7_家具
6
CONTINUOUS
62
4
10
1932.966978
20
3253.612389
30
0.000000
11
1916.748965
21
3271.789882
31
0.000000
39
0.000000
0
LINE
8
_2-7_家具
6
CONTINUOUS
62
4
10
1932.656684
20
3289.871085
30
0.000000
11
1924.568564
21
3289.871085
31
0.000000
39
0.000000
0
LINE
8
_2-7_家具
6
CONTINUOUS
62
4
10
1924.568564
20
3289.871085
30
0.000000
11
1902.014110
21
3271.789882
31
0.000000
39
0.000000
0
LINE
8
_2-7_家具
6
CONTINUOUS
62
4
10
1902.014110
20
3271.789882
30
0.000000
11
1932.656684
21
3289.871085
31
0.000000
39
0.000000
0
LINE
8
_2-7_家具
6
CONTINUOUS
62
4
10
1916.748965
20
3271.789882
30
0.000000
11
1932.656684
21
3289.871085
31
0.000000
39
0.000000
0
LINE
8
_2-7_家具
6
CONTINUOUS
62
4
10
1971.371557
20
3333.822136
30
0.000000
11
1979.459651
21
3333.822136
31
0.000000
39
0.000000
0
LINE
8
_2-7_家具
6
CONTINUOUS
62
4
10
1979.459651
20
3333.822136
30
0.000000
11
1925.008488
21
3341.311683
31
0.000000
39
0.000000
0
LINE
8
_2-7_家具
6
CONTINUOUS
62
4
10
1925.008488
20
3341.311683
30
0.000000
11
1971.371557
21
3333.822136
31
0.000000
39
0.000000
0
LINE
8
_2-7_家具
6
CONTINUOUS
62
4
10
1925.008488
20
3341.311683
30
0.000000
11
1932.966978
21
3341.311683
31
0.000000
39
0.000000
0
LINE
8
_2-7_家具
6
CONTINUOUS
62
4
10
1932.966978
20
3341.311683
30
0.000000
11
1971.371557
21
3333.822136
31
0.000000
39
0.000000
0
LINE
8
_2-7_家具
6
CONTINUOUS
62
4
10
1987.279243
20
3315.740933
30
0.000000
11
2002.014110
21
3315.740933
31
0.000000
39
0.000000
0
LINE
8
_2-7_家具
6
CONTINUOUS
62
4
10
2002.014110
20
3315.740933
30
0.000000
11
1979.459651
21
3333.822136
31
0.000000
39
0.000000
0
LINE
8
_2-7_家具
6
CONTINUOUS
62
4
10
1979.459651
20
3333.822136
30
0.000000
11
1987.279243
21
3315.740933
31
0.000000
39
0.000000
0
LINE
8
_2-7_家具
6
CONTINUOUS
62
4
10
1971.371557
20
3333.822136
30
0.000000
11
1987.279243
21
3315.740933
31
0.000000
39
0.000000
0
LINE
8
_2-7_家具
6
CONTINUOUS
62
4
10
1971.371557
20
3297.659654
30
0.000000
11
1979.459651
21
3297.659729
31
0.000000
39
0.000000
0
LINE
8
_2-7_家具
6
CONTINUOUS
62
4
10
1979.459651
20
3297.659729
30
0.000000
11
2002.014110
21
3315.740933
31
0.000000
39
0.000000
0
LINE
8
_2-7_家具
6
CONTINUOUS
62
4
10
2002.014110
20
3315.740933
30
0.000000
11
1971.371557
21
3297.659654
31
0.000000
39
0.000000
0
LINE
8
_2-7_家具
6
CONTINUOUS
62
4
10
1987.279243
20
3315.740933
30
0.000000
11
1971.371557
21
3297.659654
31
0.000000
39
0.000000
0
LINE
8
_2-7_家具
6
CONTINUOUS
62
4
10
1924.568564
20
3289.871085
30
0.000000
11
1979.459651
21
3297.659729
31
0.000000
39
0.000000
0
LINE
8
_2-7_家具
6
CONTINUOUS
62
4
10
1979.459651
20
3297.659729
30
0.000000
11
1932.656684
21
3289.871085
31
0.000000
39
0.000000
0
LINE
8
_2-7_家具
6
CONTINUOUS
62
4
10
1971.371557
20
3297.659654
30
0.000000
11
1932.656684
21
3289.871085
31
0.000000
39
0.000000
0
LINE
8
_2-7_家具
6
CONTINUOUS
62
4
10
1916.748965
20
3359.489252
30
0.000000
11
1902.014110
21
3359.489252
31
0.000000
39
0.000000
0
LINE
8
_2-7_家具
6
CONTINUOUS
62
4
10
1902.014110
20
3359.489252
30
0.000000
11
1925.008488
21
3341.311683
31
0.000000
39
0.000000
0
LINE
8
_2-7_家具
6
CONTINUOUS
62
4
10
1925.008488
20
3341.311683
30
0.000000
11
1916.748965
21
3359.489252
31
0.000000
39
0.000000
0
LINE
8
_2-7_家具
6
CONTINUOUS
62
4
10
1932.966978
20
3341.311683
30
0.000000
11
1916.748965
21
3359.489252
31
0.000000
39
0.000000
0
LINE
8
_2-7_家具
6
CONTINUOUS
62
4
10
1932.656684
20
3377.570531
30
0.000000
11
1924.568564
21
3377.570606
31
0.000000
39
0.000000
0
LINE
8
_2-7_家具
6
CONTINUOUS
62
4
10
1924.568564
20
3377.570606
30
0.000000
11
1902.014110
21
3359.489252
31
0.000000
39
0.000000
0
LINE
8
_2-7_家具
6
CONTINUOUS
62
4
10
1902.014110
20
3359.489252
30
0.000000
11
1932.656684
21
3377.570531
31
0.000000
39
0.000000
0
LINE
8
_2-7_家具
6
CONTINUOUS
62
4
10
1916.748965
20
3359.489252
30
0.000000
11
1932.656684
21
3377.570531
31
0.000000
39
0.000000
0
LINE
8
_2-7_家具
6
CONTINUOUS
62
4
10
1971.371557
20
3421.447337
30
0.000000
11
1979.459651
21
3421.447337
31
0.000000
39
0.000000
0
LINE
8
_2-7_家具
6
CONTINUOUS
62
4
10
1979.459651
20
3421.447337
30
0.000000
11
1925.008488
21
3428.936960
31
0.000000
39
0.000000
0
LINE
8
_2-7_家具
6
CONTINUOUS
62
4
10
1925.008488
20
3428.936960
30
0.000000
11
1971.371557
21
3421.447337
31
0.000000
39
0.000000
0
LINE
8
_2-7_家具
6
CONTINUOUS
62
4
10
1925.008488
20
3428.936960
30
0.000000
11
1932.966978
21
3428.936960
31
0.000000
39
0.000000
0
LINE
8
_2-7_家具
6
CONTINUOUS
62
4
10
1932.966978
20
3428.936960
30
0.000000
11
1971.371557
21
3421.447337
31
0.000000
39
0.000000
0
LINE
8
_2-7_家具
6
CONTINUOUS
62
4
10
1987.279243
20
3403.366058
30
0.000000
11
2002.014110
21
3403.366058
31
0.000000
39
0.000000
0
LINE
8
_2-7_家具
6
CONTINUOUS
62
4
10
2002.014110
20
3403.366058
30
0.000000
11
1979.459651
21
3421.447337
31
0.000000
39
0.000000
0
LINE
8
_2-7_家具
6
CONTINUOUS
62
4
10
1979.459651
20
3421.447337
30
0.000000
11
1987.279243
21
3403.366058
31
0.000000
39
0.000000
0
LINE
8
_2-7_家具
6
CONTINUOUS
62
4
10
1971.371557
20
3421.447337
30
0.000000
11
1987.279243
21
3403.366058
31
0.000000
39
0.000000
0
LINE
8
_2-7_家具
6
CONTINUOUS
62
4
10
1971.371557
20
3385.284704
30
0.000000
11
1979.459651
21
3385.284704
31
0.000000
39
0.000000
0
LINE
8
_2-7_家具
6
CONTINUOUS
62
4
10
1979.459651
20
3385.284704
30
0.000000
11
2002.014110
21
3403.366058
31
0.000000
39
0.000000
0
LINE
8
_2-7_家具
6
CONTINUOUS
62
4
10
2002.014110
20
3403.366058
30
0.000000
11
1971.371557
21
3385.284704
31
0.000000
39
0.000000
0
LINE
8
_2-7_家具
6
CONTINUOUS
62
4
10
1987.279243
20
3403.366058
30
0.000000
11
1971.371557
21
3385.284704
31
0.000000
39
0.000000
0
LINE
8
_2-7_家具
6
CONTINUOUS
62
4
10
1924.568564
20
3377.570606
30
0.000000
11
1979.459651
21
3385.284704
31
0.000000
39
0.000000
0
LINE
8
_2-7_家具
6
CONTINUOUS
62
4
10
1979.459651
20
3385.284704
30
0.000000
11
1932.656684
21
3377.570531
31
0.000000
39
0.000000
0
LINE
8
_2-7_家具
6
CONTINUOUS
62
4
10
1971.371557
20
3385.284704
30
0.000000
11
1932.656684
21
3377.570531
31
0.000000
39
0.000000
0
LINE
8
_2-7_家具
6
CONTINUOUS
62
4
10
1916.748965
20
3447.114150
30
0.000000
11
1902.014110
21
3447.114150
31
0.000000
39
0.000000
0
LINE
8
_2-7_家具
6
CONTINUOUS
62
4
10
1902.014110
20
3447.114150
30
0.000000
11
1925.008488
21
3428.936960
31
0.000000
39
0.000000
0
LINE
8
_2-7_家具
6
CONTINUOUS
62
4
10
1925.008488
20
3428.936960
30
0.000000
11
1916.748965
21
3447.114150
31
0.000000
39
0.000000
0
LINE
8
_2-7_家具
6
CONTINUOUS
62
4
10
1932.966978
20
3428.936960
30
0.000000
11
1916.748965
21
3447.114150
31
0.000000
39
0.000000
0
LINE
8
_2-7_家具
6
CONTINUOUS
62
4
10
1932.966968
20
3464.995425
30
0.000000
11
1925.008478
21
3464.995425
31
0.000000
39
0.000000
0
LINE
8
_2-7_家具
6
CONTINUOUS
62
4
10
1925.008478
20
3464.995425
30
0.000000
11
1902.014110
21
3447.114150
31
0.000000
39
0.000000
0
LINE
8
_2-7_家具
6
CONTINUOUS
62
4
10
1902.014110
20
3447.114150
30
0.000000
11
1932.966968
21
3464.995425
31
0.000000
39
0.000000
0
LINE
8
_2-7_家具
6
CONTINUOUS
62
4
10
1916.748965
20
3447.114150
30
0.000000
11
1932.966968
21
3464.995425
31
0.000000
39
0.000000
0
LINE
8
_2-7_家具
6
CONTINUOUS
62
4
10
1971.371557
20
3508.647151
30
0.000000
11
1979.459651
21
3508.647227
31
0.000000
39
0.000000
0
LINE
8
_2-7_家具
6
CONTINUOUS
62
4
10
1979.459651
20
3508.647227
30
0.000000
11
1925.008488
21
3516.136774
31
0.000000
39
0.000000
0
LINE
8
_2-7_家具
6
CONTINUOUS
62
4
10
1925.008488
20
3516.136774
30
0.000000
11
1971.371557
21
3508.647151
31
0.000000
39
0.000000
0
LINE
8
_2-7_家具
6
CONTINUOUS
62
4
10
1925.008488
20
3516.136774
30
0.000000
11
1932.966978
21
3516.136698
31
0.000000
39
0.000000
0
LINE
8
_2-7_家具
6
CONTINUOUS
62
4
10
1932.966978
20
3516.136698
30
0.000000
11
1971.371557
21
3508.647151
31
0.000000
39
0.000000
0
LINE
8
_2-7_家具
6
CONTINUOUS
62
4
10
1987.279243
20
3490.566099
30
0.000000
11
2002.014110
21
3490.566099
31
0.000000
39
0.000000
0
LINE
8
_2-7_家具
6
CONTINUOUS
62
4
10
2002.014110
20
3490.566099
30
0.000000
11
1979.459651
21
3508.647227
31
0.000000
39
0.000000
0
LINE
8
_2-7_家具
6
CONTINUOUS
62
4
10
1979.459651
20
3508.647227
30
0.000000
11
1987.279243
21
3490.566099
31
0.000000
39
0.000000
0
LINE
8
_2-7_家具
6
CONTINUOUS
62
4
10
1971.371557
20
3508.647151
30
0.000000
11
1987.279243
21
3490.566099
31
0.000000
39
0.000000
0
LINE
8
_2-7_家具
6
CONTINUOUS
62
4
10
1971.371557
20
3472.484745
30
0.000000
11
1979.459651
21
3472.484821
31
0.000000
39
0.000000
0
LINE
8
_2-7_家具
6
CONTINUOUS
62
4
10
1979.459651
20
3472.484821
30
0.000000
11
2002.014110
21
3490.566099
31
0.000000
39
0.000000
0
LINE
8
_2-7_家具
6
CONTINUOUS
62
4
10
2002.014110
20
3490.566099
30
0.000000
11
1971.371557
21
3472.484745
31
0.000000
39
0.000000
0
LINE
8
_2-7_家具
6
CONTINUOUS
62
4
10
1987.279243
20
3490.566099
30
0.000000
11
1971.371557
21
3472.484745
31
0.000000
39
0.000000
0
LINE
8
_2-7_家具
6
CONTINUOUS
62
4
10
1925.008478
20
3464.995425
30
0.000000
11
1979.459651
21
3472.484821
31
0.000000
39
0.000000
0
LINE
8
_2-7_家具
6
CONTINUOUS
62
4
10
1979.459651
20
3472.484821
30
0.000000
11
1932.966968
21
3464.995425
31
0.000000
39
0.000000
0
LINE
8
_2-7_家具
6
CONTINUOUS
62
4
10
1971.371557
20
3472.484745
30
0.000000
11
1932.966968
21
3464.995425
31
0.000000
39
0.000000
0
LINE
8
_2-7_家具
6
CONTINUOUS
62
4
10
1916.748965
20
3534.314343
30
0.000000
11
1902.014110
21
3534.314343
31
0.000000
39
0.000000
0
LINE
8
_2-7_家具
6
CONTINUOUS
62
4
10
1902.014110
20
3534.314343
30
0.000000
11
1925.008488
21
3516.136774
31
0.000000
39
0.000000
0
LINE
8
_2-7_家具
6
CONTINUOUS
62
4
10
1925.008488
20
3516.136774
30
0.000000
11
1916.748965
21
3534.314343
31
0.000000
39
0.000000
0
LINE
8
_2-7_家具
6
CONTINUOUS
62
4
10
1932.966978
20
3516.136698
30
0.000000
11
1916.748965
21
3534.314343
31
0.000000
39
0.000000
0
LINE
8
_2-7_家具
6
CONTINUOUS
62
4
10
1932.656684
20
3552.395773
30
0.000000
11
1924.568564
21
3552.395773
31
0.000000
39
0.000000
0
LINE
8
_2-7_家具
6
CONTINUOUS
62
4
10
1924.568564
20
3552.395773
30
0.000000
11
1902.014110
21
3534.314343
31
0.000000
39
0.000000
0
LINE
8
_2-7_家具
6
CONTINUOUS
62
4
10
1902.014110
20
3534.314343
30
0.000000
11
1932.656684
21
3552.395773
31
0.000000
39
0.000000
0
LINE
8
_2-7_家具
6
CONTINUOUS
62
4
10
1916.748965
20
3534.314343
30
0.000000
11
1932.656684
21
3552.395773
31
0.000000
39
0.000000
0
LINE
8
_2-7_家具
6
CONTINUOUS
62
4
10
1971.371557
20
3596.272428
30
0.000000
11
1979.459651
21
3596.272428
31
0.000000
39
0.000000
0
LINE
8
_2-7_家具
6
CONTINUOUS
62
4
10
1979.459651
20
3596.272428
30
0.000000
11
1925.008488
21
3603.762051
31
0.000000
39
0.000000
0
LINE
8
_2-7_家具
6
CONTINUOUS
62
4
10
1925.008488
20
3603.762051
30
0.000000
11
1971.371557
21
3596.272428
31
0.000000
39
0.000000
0
LINE
8
_2-7_家具
6
CONTINUOUS
62
4
10
1925.008488
20
3603.762051
30
0.000000
11
1932.966978
21
3603.762051
31
0.000000
39
0.000000
0
LINE
8
_2-7_家具
6
CONTINUOUS
62
4
10
1932.966978
20
3603.762051
30
0.000000
11
1971.371557
21
3596.272428
31
0.000000
39
0.000000
0
LINE
8
_2-7_家具
6
CONTINUOUS
62
4
10
1987.279243
20
3578.191301
30
0.000000
11
2002.014110
21
3578.191301
31
0.000000
39
0.000000
0
LINE
8
_2-7_家具
6
CONTINUOUS
62
4
10
2002.014110
20
3578.191301
30
0.000000
11
1979.459651
21
3596.272428
31
0.000000
39
0.000000
0
LINE
8
_2-7_家具
6
CONTINUOUS
62
4
10
1979.459651
20
3596.272428
30
0.000000
11
1987.279243
21
3578.191301
31
0.000000
39
0.000000
0
LINE
8
_2-7_家具
6
CONTINUOUS
62
4
10
1971.371557
20
3596.272428
30
0.000000
11
1987.279243
21
3578.191301
31
0.000000
39
0.000000
0
LINE
8
_2-7_家具
6
CONTINUOUS
62
4
10
1971.371557
20
3560.110022
30
0.000000
11
1979.459651
21
3560.110022
31
0.000000
39
0.000000
0
LINE
8
_2-7_家具
6
CONTINUOUS
62
4
10
1979.459651
20
3560.110022
30
0.000000
11
2002.014110
21
3578.191301
31
0.000000
39
0.000000
0
LINE
8
_2-7_家具
6
CONTINUOUS
62
4
10
2002.014110
20
3578.191301
30
0.000000
11
1971.371557
21
3560.110022
31
0.000000
39
0.000000
0
LINE
8
_2-7_家具
6
CONTINUOUS
62
4
10
1987.279243
20
3578.191301
30
0.000000
11
1971.371557
21
3560.110022
31
0.000000
39
0.000000
0
LINE
8
_2-7_家具
6
CONTINUOUS
62
4
10
1924.568564
20
3552.395773
30
0.000000
11
1979.459651
21
3560.110022
31
0.000000
39
0.000000
0
LINE
8
_2-7_家具
6
CONTINUOUS
62
4
10
1979.459651
20
3560.110022
30
0.000000
11
1932.656684
21
3552.395773
31
0.000000
39
0.000000
0
LINE
8
_2-7_家具
6
CONTINUOUS
62
4
10
1971.371557
20
3560.110022
30
0.000000
11
1932.656684
21
3552.395773
31
0.000000
39
0.000000
0
LINE
8
_2-7_家具
6
CONTINUOUS
62
4
10
1916.748965
20
3621.939468
30
0.000000
11
1902.014110
21
3621.939468
31
0.000000
39
0.000000
0
LINE
8
_2-7_家具
6
CONTINUOUS
62
4
10
1902.014110
20
3621.939468
30
0.000000
11
1925.008488
21
3603.762051
31
0.000000
39
0.000000
0
LINE
8
_2-7_家具
6
CONTINUOUS
62
4
10
1925.008488
20
3603.762051
30
0.000000
11
1916.748965
21
3621.939468
31
0.000000
39
0.000000
0
LINE
8
_2-7_家具
6
CONTINUOUS
62
4
10
1932.966978
20
3603.762051
30
0.000000
11
1916.748965
21
3621.939468
31
0.000000
39
0.000000
0
LINE
8
_2-7_家具
6
CONTINUOUS
62
4
10
1932.656684
20
3640.020596
30
0.000000
11
1924.568564
21
3640.020672
31
0.000000
39
0.000000
0
LINE
8
_2-7_家具
6
CONTINUOUS
62
4
10
1924.568564
20
3640.020672
30
0.000000
11
1902.014110
21
3621.939468
31
0.000000
39
0.000000
0
LINE
8
_2-7_家具
6
CONTINUOUS
62
4
10
1902.014110
20
3621.939468
30
0.000000
11
1932.656684
21
3640.020596
31
0.000000
39
0.000000
0
LINE
8
_2-7_家具
6
CONTINUOUS
62
4
10
1916.748965
20
3621.939468
30
0.000000
11
1932.656684
21
3640.020596
31
0.000000
39
0.000000
0
LINE
8
_2-7_家具
6
CONTINUOUS
62
4
10
8932.482559
20
3563.932174
30
0.000000
11
8924.394465
21
3563.932174
31
0.000000
39
0.000000
0
LINE
8
_2-7_家具
6
CONTINUOUS
62
4
10
8924.394465
20
3563.932174
30
0.000000
11
8978.845628
21
3556.442589
31
0.000000
39
0.000000
0
LINE
8
_2-7_家具
6
CONTINUOUS
62
4
10
8978.845628
20
3556.442589
30
0.000000
11
8932.482559
21
3563.932174
31
0.000000
39
0.000000
0
LINE
8
_2-7_家具
6
CONTINUOUS
62
4
10
8978.845628
20
3556.442589
30
0.000000
11
8970.887138
21
3556.442627
31
0.000000
39
0.000000
0
LINE
8
_2-7_家具
6
CONTINUOUS
62
4
10
8970.887138
20
3556.442627
30
0.000000
11
8932.482559
21
3563.932174
31
0.000000
39
0.000000
0
LINE
8
_2-7_家具
6
CONTINUOUS
62
4
10
8916.574873
20
3582.013377
30
0.000000
11
8901.840006
21
3582.013377
31
0.000000
39
0.000000
0
LINE
8
_2-7_家具
6
CONTINUOUS
62
4
10
8901.840006
20
3582.013377
30
0.000000
11
8924.394465
21
3563.932174
31
0.000000
39
0.000000
0
LINE
8
_2-7_家具
6
CONTINUOUS
62
4
10
8924.394465
20
3563.932174
30
0.000000
11
8916.574873
21
3582.013377
31
0.000000
39
0.000000
0
LINE
8
_2-7_家具
6
CONTINUOUS
62
4
10
8932.482559
20
3563.932174
30
0.000000
11
8916.574873
21
3582.013377
31
0.000000
39
0.000000
0
LINE
8
_2-7_家具
6
CONTINUOUS
62
4
10
8932.482559
20
3600.094542
30
0.000000
11
8924.394465
21
3600.094542
31
0.000000
39
0.000000
0
LINE
8
_2-7_家具
6
CONTINUOUS
62
4
10
8924.394465
20
3600.094542
30
0.000000
11
8901.840006
21
3582.013377
31
0.000000
39
0.000000
0
LINE
8
_2-7_家具
6
CONTINUOUS
62
4
10
8901.840006
20
3582.013377
30
0.000000
11
8932.482559
21
3600.094542
31
0.000000
39
0.000000
0
LINE
8
_2-7_家具
6
CONTINUOUS
62
4
10
8916.574873
20
3582.013377
30
0.000000
11
8932.482559
21
3600.094542
31
0.000000
39
0.000000
0
LINE
8
_2-7_家具
6
CONTINUOUS
62
4
10
8970.887148
20
3607.584051
30
0.000000
11
8978.845638
21
3607.584051
31
0.000000
39
0.000000
0
LINE
8
_2-7_家具
6
CONTINUOUS
62
4
10
8978.845638
20
3607.584051
30
0.000000
11
8924.394465
21
3600.094542
31
0.000000
39
0.000000
0
LINE
8
_2-7_家具
6
CONTINUOUS
62
4
10
8924.394465
20
3600.094542
30
0.000000
11
8970.887148
21
3607.584051
31
0.000000
39
0.000000
0
LINE
8
_2-7_家具
6
CONTINUOUS
62
4
10
8932.482559
20
3600.094542
30
0.000000
11
8970.887148
21
3607.584051
31
0.000000
39
0.000000
0
LINE
8
_2-7_家具
6
CONTINUOUS
62
4
10
8987.105151
20
3538.265058
30
0.000000
11
9001.840006
21
3538.265058
31
0.000000
39
0.000000
0
LINE
8
_2-7_家具
6
CONTINUOUS
62
4
10
9001.840006
20
3538.265058
30
0.000000
11
8978.845628
21
3556.442589
31
0.000000
39
0.000000
0
LINE
8
_2-7_家具
6
CONTINUOUS
62
4
10
8978.845628
20
3556.442589
30
0.000000
11
8987.105151
21
3538.265058
31
0.000000
39
0.000000
0
LINE
8
_2-7_家具
6
CONTINUOUS
62
4
10
8970.887138
20
3556.442627
30
0.000000
11
8987.105151
21
3538.265058
31
0.000000
39
0.000000
0
LINE
8
_2-7_家具
6
CONTINUOUS
62
4
10
8971.197433
20
3520.183703
30
0.000000
11
8979.285552
21
3520.183665
31
0.000000
39
0.000000
0
LINE
8
_2-7_家具
6
CONTINUOUS
62
4
10
8979.285552
20
3520.183665
30
0.000000
11
9001.840006
21
3538.265058
31
0.000000
39
0.000000
0
LINE
8
_2-7_家具
6
CONTINUOUS
62
4
10
9001.840006
20
3538.265058
30
0.000000
11
8971.197433
21
3520.183703
31
0.000000
39
0.000000
0
LINE
8
_2-7_家具
6
CONTINUOUS
62
4
10
8987.105151
20
3538.265058
30
0.000000
11
8971.197433
21
3520.183703
31
0.000000
39
0.000000
0
LINE
8
_2-7_家具
6
CONTINUOUS
62
4
10
8932.482559
20
3476.307010
30
0.000000
11
8924.394465
21
3476.306972
31
0.000000
39
0.000000
0
LINE
8
_2-7_家具
6
CONTINUOUS
62
4
10
8924.394465
20
3476.306972
30
0.000000
11
8978.845628
21
3468.817349
31
0.000000
39
0.000000
0
LINE
8
_2-7_家具
6
CONTINUOUS
62
4
10
8978.845628
20
3468.817349
30
0.000000
11
8932.482559
21
3476.307010
31
0.000000
39
0.000000
0
LINE
8
_2-7_家具
6
CONTINUOUS
62
4
10
8978.845628
20
3468.817349
30
0.000000
11
8970.887138
21
3468.817349
31
0.000000
39
0.000000
0
LINE
8
_2-7_家具
6
CONTINUOUS
62
4
10
8970.887138
20
3468.817349
30
0.000000
11
8932.482559
21
3476.307010
31
0.000000
39
0.000000
0
LINE
8
_2-7_家具
6
CONTINUOUS
62
4
10
8916.574873
20
3494.388251
30
0.000000
11
8901.840006
21
3494.388251
31
0.000000
39
0.000000
0
LINE
8
_2-7_家具
6
CONTINUOUS
62
4
10
8901.840006
20
3494.388251
30
0.000000
11
8924.394465
21
3476.306972
31
0.000000
39
0.000000
0
LINE
8
_2-7_家具
6
CONTINUOUS
62
4
10
8924.394465
20
3476.306972
30
0.000000
11
8916.574873
21
3494.388251
31
0.000000
39
0.000000
0
LINE
8
_2-7_家具
6
CONTINUOUS
62
4
10
8932.482559
20
3476.307010
30
0.000000
11
8916.574873
21
3494.388251
31
0.000000
39
0.000000
0
LINE
8
_2-7_家具
6
CONTINUOUS
62
4
10
8932.482559
20
3512.469606
30
0.000000
11
8924.394465
21
3512.469568
31
0.000000
39
0.000000
0
LINE
8
_2-7_家具
6
CONTINUOUS
62
4
10
8924.394465
20
3512.469568
30
0.000000
11
8901.840006
21
3494.388251
31
0.000000
39
0.000000
0
LINE
8
_2-7_家具
6
CONTINUOUS
62
4
10
8901.840006
20
3494.388251
30
0.000000
11
8932.482559
21
3512.469606
31
0.000000
39
0.000000
0
LINE
8
_2-7_家具
6
CONTINUOUS
62
4
10
8916.574873
20
3494.388251
30
0.000000
11
8932.482559
21
3512.469606
31
0.000000
39
0.000000
0
LINE
8
_2-7_家具
6
CONTINUOUS
62
4
10
8979.285552
20
3520.183665
30
0.000000
11
8924.394465
21
3512.469568
31
0.000000
39
0.000000
0
LINE
8
_2-7_家具
6
CONTINUOUS
62
4
10
8924.394465
20
3512.469568
30
0.000000
11
8971.197433
21
3520.183703
31
0.000000
39
0.000000
0
LINE
8
_2-7_家具
6
CONTINUOUS
62
4
10
8932.482559
20
3512.469606
30
0.000000
11
8971.197433
21
3520.183703
31
0.000000
39
0.000000
0
LINE
8
_2-7_家具
6
CONTINUOUS
62
4
10
8987.105151
20
3450.640197
30
0.000000
11
9001.840006
21
3450.640159
31
0.000000
39
0.000000
0
LINE
8
_2-7_家具
6
CONTINUOUS
62
4
10
9001.840006
20
3450.640159
30
0.000000
11
8978.845628
21
3468.817349
31
0.000000
39
0.000000
0
LINE
8
_2-7_家具
6
CONTINUOUS
62
4
10
8978.845628
20
3468.817349
30
0.000000
11
8987.105151
21
3450.640197
31
0.000000
39
0.000000
0
LINE
8
_2-7_家具
6
CONTINUOUS
62
4
10
8970.887138
20
3468.817349
30
0.000000
11
8987.105151
21
3450.640197
31
0.000000
39
0.000000
0
LINE
8
_2-7_家具
6
CONTINUOUS
62
4
10
8970.887148
20
3432.758847
30
0.000000
11
8978.845638
21
3432.758847
31
0.000000
39
0.000000
0
LINE
8
_2-7_家具
6
CONTINUOUS
62
4
10
8978.845638
20
3432.758847
30
0.000000
11
9001.840006
21
3450.640159
31
0.000000
39
0.000000
0
LINE
8
_2-7_家具
6
CONTINUOUS
62
4
10
9001.840006
20
3450.640159
30
0.000000
11
8970.887148
21
3432.758847
31
0.000000
39
0.000000
0
LINE
8
_2-7_家具
6
CONTINUOUS
62
4
10
8987.105151
20
3450.640197
30
0.000000
11
8970.887148
21
3432.758847
31
0.000000
39
0.000000
0
LINE
8
_2-7_家具
6
CONTINUOUS
62
4
10
8932.482559
20
3389.107158
30
0.000000
11
8924.394465
21
3389.107120
31
0.000000
39
0.000000
0
LINE
8
_2-7_家具
6
CONTINUOUS
62
4
10
8924.394465
20
3389.107120
30
0.000000
11
8978.845628
21
3381.617535
31
0.000000
39
0.000000
0
LINE
8
_2-7_家具
6
CONTINUOUS
62
4
10
8978.845628
20
3381.617535
30
0.000000
11
8932.482559
21
3389.107158
31
0.000000
39
0.000000
0
LINE
8
_2-7_家具
6
CONTINUOUS
62
4
10
8978.845628
20
3381.617535
30
0.000000
11
8970.887138
21
3381.617535
31
0.000000
39
0.000000
0
LINE
8
_2-7_家具
6
CONTINUOUS
62
4
10
8970.887138
20
3381.617535
30
0.000000
11
8932.482559
21
3389.107158
31
0.000000
39
0.000000
0
LINE
8
_2-7_家具
6
CONTINUOUS
62
4
10
8916.574873
20
3407.188210
30
0.000000
11
8901.840006
21
3407.188172
31
0.000000
39
0.000000
0
LINE
8
_2-7_家具
6
CONTINUOUS
62
4
10
8901.840006
20
3407.188172
30
0.000000
11
8924.394465
21
3389.107120
31
0.000000
39
0.000000
0
LINE
8
_2-7_家具
6
CONTINUOUS
62
4
10
8924.394465
20
3389.107120
30
0.000000
11
8916.574873
21
3407.188210
31
0.000000
39
0.000000
0
LINE
8
_2-7_家具
6
CONTINUOUS
62
4
10
8932.482559
20
3389.107158
30
0.000000
11
8916.574873
21
3407.188210
31
0.000000
39
0.000000
0
LINE
8
_2-7_家具
6
CONTINUOUS
62
4
10
8932.482559
20
3425.269451
30
0.000000
11
8924.394465
21
3425.269451
31
0.000000
39
0.000000
0
LINE
8
_2-7_家具
6
CONTINUOUS
62
4
10
8924.394465
20
3425.269451
30
0.000000
11
8901.840006
21
3407.188172
31
0.000000
39
0.000000
0
LINE
8
_2-7_家具
6
CONTINUOUS
62
4
10
8901.840006
20
3407.188172
30
0.000000
11
8932.482559
21
3425.269451
31
0.000000
39
0.000000
0
LINE
8
_2-7_家具
6
CONTINUOUS
62
4
10
8916.574873
20
3407.188210
30
0.000000
11
8932.482559
21
3425.269451
31
0.000000
39
0.000000
0
LINE
8
_2-7_家具
6
CONTINUOUS
62
4
10
8978.845638
20
3432.758847
30
0.000000
11
8924.394465
21
3425.269451
31
0.000000
39
0.000000
0
LINE
8
_2-7_家具
6
CONTINUOUS
62
4
10
8924.394465
20
3425.269451
30
0.000000
11
8970.887148
21
3432.758847
31
0.000000
39
0.000000
0
LINE
8
_2-7_家具
6
CONTINUOUS
62
4
10
8932.482559
20
3425.269451
30
0.000000
11
8970.887148
21
3432.758847
31
0.000000
39
0.000000
0
LINE
8
_2-7_家具
6
CONTINUOUS
62
4
10
8987.105151
20
3363.439967
30
0.000000
11
9001.840006
21
3363.439967
31
0.000000
39
0.000000
0
LINE
8
_2-7_家具
6
CONTINUOUS
62
4
10
9001.840006
20
3363.439967
30
0.000000
11
8978.845628
21
3381.617535
31
0.000000
39
0.000000
0
LINE
8
_2-7_家具
6
CONTINUOUS
62
4
10
8978.845628
20
3381.617535
30
0.000000
11
8987.105151
21
3363.439967
31
0.000000
39
0.000000
0
LINE
8
_2-7_家具
6
CONTINUOUS
62
4
10
8970.887138
20
3381.617535
30
0.000000
11
8987.105151
21
3363.439967
31
0.000000
39
0.000000
0
LINE
8
_2-7_家具
6
CONTINUOUS
62
4
10
8971.197433
20
3345.358536
30
0.000000
11
8979.285552
21
3345.358536
31
0.000000
39
0.000000
0
LINE
8
_2-7_家具
6
CONTINUOUS
62
4
10
8979.285552
20
3345.358536
30
0.000000
11
9001.840006
21
3363.439967
31
0.000000
39
0.000000
0
LINE
8
_2-7_家具
6
CONTINUOUS
62
4
10
9001.840006
20
3363.439967
30
0.000000
11
8971.197433
21
3345.358536
31
0.000000
39
0.000000
0
LINE
8
_2-7_家具
6
CONTINUOUS
62
4
10
8987.105151
20
3363.439967
30
0.000000
11
8971.197433
21
3345.358536
31
0.000000
39
0.000000
0
LINE
8
_2-7_家具
6
CONTINUOUS
62
4
10
8932.482559
20
3301.481881
30
0.000000
11
8924.394465
21
3301.481881
31
0.000000
39
0.000000
0
LINE
8
_2-7_家具
6
CONTINUOUS
62
4
10
8924.394465
20
3301.481881
30
0.000000
11
8978.845628
21
3293.992258
31
0.000000
39
0.000000
0
LINE
8
_2-7_家具
6
CONTINUOUS
62
4
10
8978.845628
20
3293.992258
30
0.000000
11
8932.482559
21
3301.481881
31
0.000000
39
0.000000
0
LINE
8
_2-7_家具
6
CONTINUOUS
62
4
10
8978.845628
20
3293.992258
30
0.000000
11
8970.887138
21
3293.992334
31
0.000000
39
0.000000
0
LINE
8
_2-7_家具
6
CONTINUOUS
62
4
10
8970.887138
20
3293.992334
30
0.000000
11
8932.482559
21
3301.481881
31
0.000000
39
0.000000
0
LINE
8
_2-7_家具
6
CONTINUOUS
62
4
10
8916.574873
20
3319.563009
30
0.000000
11
8901.840006
21
3319.563009
31
0.000000
39
0.000000
0
LINE
8
_2-7_家具
6
CONTINUOUS
62
4
10
8901.840006
20
3319.563009
30
0.000000
11
8924.394465
21
3301.481881
31
0.000000
39
0.000000
0
LINE
8
_2-7_家具
6
CONTINUOUS
62
4
10
8924.394465
20
3301.481881
30
0.000000
11
8916.574873
21
3319.563009
31
0.000000
39
0.000000
0
LINE
8
_2-7_家具
6
CONTINUOUS
62
4
10
8932.482559
20
3301.481881
30
0.000000
11
8916.574873
21
3319.563009
31
0.000000
39
0.000000
0
LINE
8
_2-7_家具
6
CONTINUOUS
62
4
10
8932.482559
20
3337.644287
30
0.000000
11
8924.394465
21
3337.644287
31
0.000000
39
0.000000
0
LINE
8
_2-7_家具
6
CONTINUOUS
62
4
10
8924.394465
20
3337.644287
30
0.000000
11
8901.840006
21
3319.563009
31
0.000000
39
0.000000
0
LINE
8
_2-7_家具
6
CONTINUOUS
62
4
10
8901.840006
20
3319.563009
30
0.000000
11
8932.482559
21
3337.644287
31
0.000000
39
0.000000
0
LINE
8
_2-7_家具
6
CONTINUOUS
62
4
10
8916.574873
20
3319.563009
30
0.000000
11
8932.482559
21
3337.644287
31
0.000000
39
0.000000
0
LINE
8
_2-7_家具
6
CONTINUOUS
62
4
10
8979.285552
20
3345.358536
30
0.000000
11
8924.394465
21
3337.644287
31
0.000000
39
0.000000
0
LINE
8
_2-7_家具
6
CONTINUOUS
62
4
10
8924.394465
20
3337.644287
30
0.000000
11
8971.197433
21
3345.358536
31
0.000000
39
0.000000
0
LINE
8
_2-7_家具
6
CONTINUOUS
62
4
10
8932.482559
20
3337.644287
30
0.000000
11
8971.197433
21
3345.358536
31
0.000000
39
0.000000
0
LINE
8
_2-7_家具
6
CONTINUOUS
62
4
10
8987.105151
20
3275.814841
30
0.000000
11
9001.840006
21
3275.814841
31
0.000000
39
0.000000
0
LINE
8
_2-7_家具
6
CONTINUOUS
62
4
10
9001.840006
20
3275.814841
30
0.000000
11
8978.845628
21
3293.992258
31
0.000000
39
0.000000
0
LINE
8
_2-7_家具
6
CONTINUOUS
62
4
10
8978.845628
20
3293.992258
30
0.000000
11
8987.105151
21
3275.814841
31
0.000000
39
0.000000
0
LINE
8
_2-7_家具
6
CONTINUOUS
62
4
10
8970.887138
20
3293.992334
30
0.000000
11
8987.105151
21
3275.814841
31
0.000000
39
0.000000
0
LINE
8
_2-7_家具
6
CONTINUOUS
62
4
10
8971.197433
20
3257.733638
30
0.000000
11
8979.285552
21
3257.733638
31
0.000000
39
0.000000
0
LINE
8
_2-7_家具
6
CONTINUOUS
62
4
10
8979.285552
20
3257.733638
30
0.000000
11
9001.840006
21
3275.814841
31
0.000000
39
0.000000
0
LINE
8
_2-7_家具
6
CONTINUOUS
62
4
10
9001.840006
20
3275.814841
30
0.000000
11
8971.197433
21
3257.733638
31
0.000000
39
0.000000
0
LINE
8
_2-7_家具
6
CONTINUOUS
62
4
10
8987.105151
20
3275.814841
30
0.000000
11
8971.197433
21
3257.733638
31
0.000000
39
0.000000
0
LINE
8
_2-7_家具
6
CONTINUOUS
62
4
10
8932.482559
20
3213.782587
30
0.000000
11
8924.394465
21
3213.782587
31
0.000000
39
0.000000
0
LINE
8
_2-7_家具
6
CONTINUOUS
62
4
10
8924.394465
20
3213.782587
30
0.000000
11
8978.845628
21
3206.293040
31
0.000000
39
0.000000
0
LINE
8
_2-7_家具
6
CONTINUOUS
62
4
10
8978.845628
20
3206.293040
30
0.000000
11
8932.482559
21
3213.782587
31
0.000000
39
0.000000
0
LINE
8
_2-7_家具
6
CONTINUOUS
62
4
10
8978.845628
20
3206.293040
30
0.000000
11
8970.887138
21
3206.293040
31
0.000000
39
0.000000
0
LINE
8
_2-7_家具
6
CONTINUOUS
62
4
10
8970.887138
20
3206.293040
30
0.000000
11
8932.482559
21
3213.782587
31
0.000000
39
0.000000
0
LINE
8
_2-7_家具
6
CONTINUOUS
62
4
10
8916.574873
20
3231.863790
30
0.000000
11
8901.840006
21
3231.863790
31
0.000000
39
0.000000
0
LINE
8
_2-7_家具
6
CONTINUOUS
62
4
10
8901.840006
20
3231.863790
30
0.000000
11
8924.394465
21
3213.782587
31
0.000000
39
0.000000
0
LINE
8
_2-7_家具
6
CONTINUOUS
62
4
10
8924.394465
20
3213.782587
30
0.000000
11
8916.574873
21
3231.863790
31
0.000000
39
0.000000
0
LINE
8
_2-7_家具
6
CONTINUOUS
62
4
10
8932.482559
20
3213.782587
30
0.000000
11
8916.574873
21
3231.863790
31
0.000000
39
0.000000
0
LINE
8
_2-7_家具
6
CONTINUOUS
62
4
10
8932.482559
20
3249.945069
30
0.000000
11
8924.394465
21
3249.944994
31
0.000000
39
0.000000
0
LINE
8
_2-7_家具
6
CONTINUOUS
62
4
10
8924.394465
20
3249.944994
30
0.000000
11
8901.840006
21
3231.863790
31
0.000000
39
0.000000
0
LINE
8
_2-7_家具
6
CONTINUOUS
62
4
10
8901.840006
20
3231.863790
30
0.000000
11
8932.482559
21
3249.945069
31
0.000000
39
0.000000
0
LINE
8
_2-7_家具
6
CONTINUOUS
62
4
10
8916.574873
20
3231.863790
30
0.000000
11
8932.482559
21
3249.945069
31
0.000000
39
0.000000
0
LINE
8
_2-7_家具
6
CONTINUOUS
62
4
10
8979.285552
20
3257.733638
30
0.000000
11
8924.394465
21
3249.944994
31
0.000000
39
0.000000
0
LINE
8
_2-7_家具
6
CONTINUOUS
62
4
10
8924.394465
20
3249.944994
30
0.000000
11
8971.197433
21
3257.733638
31
0.000000
39
0.000000
0
LINE
8
_2-7_家具
6
CONTINUOUS
62
4
10
8932.482559
20
3249.945069
30
0.000000
11
8971.197433
21
3257.733638
31
0.000000
39
0.000000
0
LINE
8
_2-7_家具
6
CONTINUOUS
62
4
10
8987.105151
20
3188.115471
30
0.000000
11
9001.840006
21
3188.115471
31
0.000000
39
0.000000
0
LINE
8
_2-7_家具
6
CONTINUOUS
62
4
10
9001.840006
20
3188.115471
30
0.000000
11
8978.845628
21
3206.293040
31
0.000000
39
0.000000
0
LINE
8
_2-7_家具
6
CONTINUOUS
62
4
10
8978.845628
20
3206.293040
30
0.000000
11
8987.105151
21
3188.115471
31
0.000000
39
0.000000
0
LINE
8
_2-7_家具
6
CONTINUOUS
62
4
10
8970.887138
20
3206.293040
30
0.000000
11
8987.105151
21
3188.115471
31
0.000000
39
0.000000
0
LINE
8
_2-7_家具
6
CONTINUOUS
62
4
10
8971.197433
20
3170.034192
30
0.000000
11
8979.285552
21
3170.034117
31
0.000000
39
0.000000
0
LINE
8
_2-7_家具
6
CONTINUOUS
62
4
10
8979.285552
20
3170.034117
30
0.000000
11
9001.840006
21
3188.115471
31
0.000000
39
0.000000
0
LINE
8
_2-7_家具
6
CONTINUOUS
62
4
10
9001.840006
20
3188.115471
30
0.000000
11
8971.197433
21
3170.034192
31
0.000000
39
0.000000
0
LINE
8
_2-7_家具
6
CONTINUOUS
62
4
10
8987.105151
20
3188.115471
30
0.000000
11
8971.197433
21
3170.034192
31
0.000000
39
0.000000
0
LINE
8
_2-7_家具
6
CONTINUOUS
62
4
10
8932.482559
20
3126.157386
30
0.000000
11
8924.394465
21
3126.157386
31
0.000000
39
0.000000
0
LINE
8
_2-7_家具
6
CONTINUOUS
62
4
10
8924.394465
20
3126.157386
30
0.000000
11
8978.845628
21
3118.667763
31
0.000000
39
0.000000
0
LINE
8
_2-7_家具
6
CONTINUOUS
62
4
10
8978.845628
20
3118.667763
30
0.000000
11
8932.482559
21
3126.157386
31
0.000000
39
0.000000
0
LINE
8
_2-7_家具
6
CONTINUOUS
62
4
10
8978.845628
20
3118.667763
30
0.000000
11
8970.887138
21
3118.667763
31
0.000000
39
0.000000
0
LINE
8
_2-7_家具
6
CONTINUOUS
62
4
10
8970.887138
20
3118.667763
30
0.000000
11
8932.482559
21
3126.157386
31
0.000000
39
0.000000
0
LINE
8
_2-7_家具
6
CONTINUOUS
62
4
10
8916.574873
20
3144.238665
30
0.000000
11
8901.840006
21
3144.238665
31
0.000000
39
0.000000
0
LINE
8
_2-7_家具
6
CONTINUOUS
62
4
10
8901.840006
20
3144.238665
30
0.000000
11
8924.394465
21
3126.157386
31
0.000000
39
0.000000
0
LINE
8
_2-7_家具
6
CONTINUOUS
62
4
10
8924.394465
20
3126.157386
30
0.000000
11
8916.574873
21
3144.238665
31
0.000000
39
0.000000
0
LINE
8
_2-7_家具
6
CONTINUOUS
62
4
10
8932.482559
20
3126.157386
30
0.000000
11
8916.574873
21
3144.238665
31
0.000000
39
0.000000
0
LINE
8
_2-7_家具
6
CONTINUOUS
62
4
10
8932.482559
20
3162.320019
30
0.000000
11
8924.394465
21
3162.320019
31
0.000000
39
0.000000
0
LINE
8
_2-7_家具
6
CONTINUOUS
62
4
10
8924.394465
20
3162.320019
30
0.000000
11
8901.840006
21
3144.238665
31
0.000000
39
0.000000
0
LINE
8
_2-7_家具
6
CONTINUOUS
62
4
10
8901.840006
20
3144.238665
30
0.000000
11
8932.482559
21
3162.320019
31
0.000000
39
0.000000
0
LINE
8
_2-7_家具
6
CONTINUOUS
62
4
10
8916.574873
20
3144.238665
30
0.000000
11
8932.482559
21
3162.320019
31
0.000000
39
0.000000
0
LINE
8
_2-7_家具
6
CONTINUOUS
62
4
10
8979.285552
20
3170.034117
30
0.000000
11
8924.394465
21
3162.320019
31
0.000000
39
0.000000
0
LINE
8
_2-7_家具
6
CONTINUOUS
62
4
10
8924.394465
20
3162.320019
30
0.000000
11
8971.197433
21
3170.034192
31
0.000000
39
0.000000
0
LINE
8
_2-7_家具
6
CONTINUOUS
62
4
10
8932.482559
20
3162.320019
30
0.000000
11
8971.197433
21
3170.034192
31
0.000000
39
0.000000
0
LINE
8
_2-7_家具
6
CONTINUOUS
62
4
10
8987.105151
20
3100.490573
30
0.000000
11
9001.840006
21
3100.490573
31
0.000000
39
0.000000
0
LINE
8
_2-7_家具
6
CONTINUOUS
62
4
10
9001.840006
20
3100.490573
30
0.000000
11
8978.845628
21
3118.667763
31
0.000000
39
0.000000
0
LINE
8
_2-7_家具
6
CONTINUOUS
62
4
10
8978.845628
20
3118.667763
30
0.000000
11
8987.105151
21
3100.490573
31
0.000000
39
0.000000
0
LINE
8
_2-7_家具
6
CONTINUOUS
62
4
10
8970.887138
20
3118.667763
30
0.000000
11
8987.105151
21
3100.490573
31
0.000000
39
0.000000
0
LINE
8
_2-7_家具
6
CONTINUOUS
62
4
10
8970.887148
20
3082.609298
30
0.000000
11
8978.845638
21
3082.609298
31
0.000000
39
0.000000
0
LINE
8
_2-7_家具
6
CONTINUOUS
62
4
10
8978.845638
20
3082.609298
30
0.000000
11
9001.840006
21
3100.490573
31
0.000000
39
0.000000
0
LINE
8
_2-7_家具
6
CONTINUOUS
62
4
10
9001.840006
20
3100.490573
30
0.000000
11
8970.887148
21
3082.609298
31
0.000000
39
0.000000
0
LINE
8
_2-7_家具
6
CONTINUOUS
62
4
10
8987.105151
20
3100.490573
30
0.000000
11
8970.887148
21
3082.609298
31
0.000000
39
0.000000
0
LINE
8
_2-7_家具
6
CONTINUOUS
62
4
10
8932.482559
20
3038.957572
30
0.000000
11
8924.394465
21
3038.957496
31
0.000000
39
0.000000
0
LINE
8
_2-7_家具
6
CONTINUOUS
62
4
10
8924.394465
20
3038.957496
30
0.000000
11
8978.845628
21
3031.467949
31
0.000000
39
0.000000
0
LINE
8
_2-7_家具
6
CONTINUOUS
62
4
10
8978.845628
20
3031.467949
30
0.000000
11
8932.482559
21
3038.957572
31
0.000000
39
0.000000
0
LINE
8
_2-7_家具
6
CONTINUOUS
62
4
10
8978.845628
20
3031.467949
30
0.000000
11
8970.887138
21
3031.468025
31
0.000000
39
0.000000
0
LINE
8
_2-7_家具
6
CONTINUOUS
62
4
10
8970.887138
20
3031.468025
30
0.000000
11
8932.482559
21
3038.957572
31
0.000000
39
0.000000
0
LINE
8
_2-7_家具
6
CONTINUOUS
62
4
10
8916.574873
20
3057.038624
30
0.000000
11
8901.840006
21
3057.038624
31
0.000000
39
0.000000
0
LINE
8
_2-7_家具
6
CONTINUOUS
62
4
10
8901.840006
20
3057.038624
30
0.000000
11
8924.394465
21
3038.957496
31
0.000000
39
0.000000
0
LINE
8
_2-7_家具
6
CONTINUOUS
62
4
10
8924.394465
20
3038.957496
30
0.000000
11
8916.574873
21
3057.038624
31
0.000000
39
0.000000
0
LINE
8
_2-7_家具
6
CONTINUOUS
62
4
10
8932.482559
20
3038.957572
30
0.000000
11
8916.574873
21
3057.038624
31
0.000000
39
0.000000
0
LINE
8
_2-7_家具
6
CONTINUOUS
62
4
10
8932.482559
20
3075.119978
30
0.000000
11
8924.394465
21
3075.119903
31
0.000000
39
0.000000
0
LINE
8
_2-7_家具
6
CONTINUOUS
62
4
10
8924.394465
20
3075.119903
30
0.000000
11
8901.840006
21
3057.038624
31
0.000000
39
0.000000
0
LINE
8
_2-7_家具
6
CONTINUOUS
62
4
10
8901.840006
20
3057.038624
30
0.000000
11
8932.482559
21
3075.119978
31
0.000000
39
0.000000
0
LINE
8
_2-7_家具
6
CONTINUOUS
62
4
10
8916.574873
20
3057.038624
30
0.000000
11
8932.482559
21
3075.119978
31
0.000000
39
0.000000
0
LINE
8
_2-7_家具
6
CONTINUOUS
62
4
10
8978.845638
20
3082.609298
30
0.000000
11
8924.394465
21
3075.119903
31
0.000000
39
0.000000
0
LINE
8
_2-7_家具
6
CONTINUOUS
62
4
10
8924.394465
20
3075.119903
30
0.000000
11
8970.887148
21
3082.609298
31
0.000000
39
0.000000
0
LINE
8
_2-7_家具
6
CONTINUOUS
62
4
10
8932.482559
20
3075.119978
30
0.000000
11
8970.887148
21
3082.609298
31
0.000000
39
0.000000
0
LINE
8
_2-7_家具
6
CONTINUOUS
62
4
10
8987.105151
20
3013.290380
30
0.000000
11
9001.840006
21
3013.290380
31
0.000000
39
0.000000
0
LINE
8
_2-7_家具
6
CONTINUOUS
62
4
10
9001.840006
20
3013.290380
30
0.000000
11
8978.845628
21
3031.467949
31
0.000000
39
0.000000
0
LINE
8
_2-7_家具
6
CONTINUOUS
62
4
10
8978.845628
20
3031.467949
30
0.000000
11
8987.105151
21
3013.290380
31
0.000000
39
0.000000
0
LINE
8
_2-7_家具
6
CONTINUOUS
62
4
10
8970.887138
20
3031.468025
30
0.000000
11
8987.105151
21
3013.290380
31
0.000000
39
0.000000
0
LINE
8
_2-7_家具
6
CONTINUOUS
62
4
10
8971.197433
20
2995.208950
30
0.000000
11
8979.285552
21
2995.208950
31
0.000000
39
0.000000
0
LINE
8
_2-7_家具
6
CONTINUOUS
62
4
10
8979.285552
20
2995.208950
30
0.000000
11
9001.840006
21
3013.290380
31
0.000000
39
0.000000
0
LINE
8
_2-7_家具
6
CONTINUOUS
62
4
10
9001.840006
20
3013.290380
30
0.000000
11
8971.197433
21
2995.208950
31
0.000000
39
0.000000
0
LINE
8
_2-7_家具
6
CONTINUOUS
62
4
10
8987.105151
20
3013.290380
30
0.000000
11
8971.197433
21
2995.208950
31
0.000000
39
0.000000
0
LINE
8
_2-7_家具
6
CONTINUOUS
62
4
10
8932.482559
20
2951.332295
30
0.000000
11
8924.394465
21
2951.332295
31
0.000000
39
0.000000
0
LINE
8
_2-7_家具
6
CONTINUOUS
62
4
10
8924.394465
20
2951.332295
30
0.000000
11
8978.845628
21
2943.842672
31
0.000000
39
0.000000
0
LINE
8
_2-7_家具
6
CONTINUOUS
62
4
10
8978.845628
20
2943.842672
30
0.000000
11
8932.482559
21
2951.332295
31
0.000000
39
0.000000
0
LINE
8
_2-7_家具
6
CONTINUOUS
62
4
10
8978.845628
20
2943.842672
30
0.000000
11
8970.887138
21
2943.842672
31
0.000000
39
0.000000
0
LINE
8
_2-7_家具
6
CONTINUOUS
62
4
10
8970.887138
20
2943.842672
30
0.000000
11
8932.482559
21
2951.332295
31
0.000000
39
0.000000
0
LINE
8
_2-7_家具
6
CONTINUOUS
62
4
10
8916.574873
20
2969.413422
30
0.000000
11
8901.840006
21
2969.413422
31
0.000000
39
0.000000
0
LINE
8
_2-7_家具
6
CONTINUOUS
62
4
10
8901.840006
20
2969.413422
30
0.000000
11
8924.394465
21
2951.332295
31
0.000000
39
0.000000
0
LINE
8
_2-7_家具
6
CONTINUOUS
62
4
10
8924.394465
20
2951.332295
30
0.000000
11
8916.574873
21
2969.413422
31
0.000000
39
0.000000
0
LINE
8
_2-7_家具
6
CONTINUOUS
62
4
10
8932.482559
20
2951.332295
30
0.000000
11
8916.574873
21
2969.413422
31
0.000000
39
0.000000
0
LINE
8
_2-7_家具
6
CONTINUOUS
62
4
10
8932.482559
20
2987.494701
30
0.000000
11
8924.394465
21
2987.494701
31
0.000000
39
0.000000
0
LINE
8
_2-7_家具
6
CONTINUOUS
62
4
10
8924.394465
20
2987.494701
30
0.000000
11
8901.840006
21
2969.413422
31
0.000000
39
0.000000
0
LINE
8
_2-7_家具
6
CONTINUOUS
62
4
10
8901.840006
20
2969.413422
30
0.000000
11
8932.482559
21
2987.494701
31
0.000000
39
0.000000
0
LINE
8
_2-7_家具
6
CONTINUOUS
62
4
10
8916.574873
20
2969.413422
30
0.000000
11
8932.482559
21
2987.494701
31
0.000000
39
0.000000
0
LINE
8
_2-7_家具
6
CONTINUOUS
62
4
10
8979.285552
20
2995.208950
30
0.000000
11
8924.394465
21
2987.494701
31
0.000000
39
0.000000
0
LINE
8
_2-7_家具
6
CONTINUOUS
62
4
10
8924.394465
20
2987.494701
30
0.000000
11
8971.197433
21
2995.208950
31
0.000000
39
0.000000
0
LINE
8
_2-7_家具
6
CONTINUOUS
62
4
10
8932.482559
20
2987.494701
30
0.000000
11
8971.197433
21
2995.208950
31
0.000000
39
0.000000
0
LINE
8
_2-7_家具
6
CONTINUOUS
62
4
10
8987.105151
20
2925.665255
30
0.000000
11
9001.840006
21
2925.665255
31
0.000000
39
0.000000
0
LINE
8
_2-7_家具
6
CONTINUOUS
62
4
10
9001.840006
20
2925.665255
30
0.000000
11
8978.845628
21
2943.842672
31
0.000000
39
0.000000
0
LINE
8
_2-7_家具
6
CONTINUOUS
62
4
10
8978.845628
20
2943.842672
30
0.000000
11
8987.105151
21
2925.665255
31
0.000000
39
0.000000
0
LINE
8
_2-7_家具
6
CONTINUOUS
62
4
10
8970.887138
20
2943.842672
30
0.000000
11
8987.105151
21
2925.665255
31
0.000000
39
0.000000
0
LINE
8
_2-7_家具
6
CONTINUOUS
62
4
10
8971.197433
20
2907.584127
30
0.000000
11
8979.285552
21
2907.584051
31
0.000000
39
0.000000
0
LINE
8
_2-7_家具
6
CONTINUOUS
62
4
10
8979.285552
20
2907.584051
30
0.000000
11
9001.840006
21
2925.665255
31
0.000000
39
0.000000
0
LINE
8
_2-7_家具
6
CONTINUOUS
62
4
10
9001.840006
20
2925.665255
30
0.000000
11
8971.197433
21
2907.584127
31
0.000000
39
0.000000
0
LINE
8
_2-7_家具
6
CONTINUOUS
62
4
10
8987.105151
20
2925.665255
30
0.000000
11
8971.197433
21
2907.584127
31
0.000000
39
0.000000
0
LINE
8
_2-7_家具
6
CONTINUOUS
62
4
10
8475.896606
20
1049.354122
30
0.000000
11
8477.743209
21
1000.163865
31
0.000000
39
0.000000
0
LINE
8
_2-7_家具
6
CONTINUOUS
62
4
10
8471.588744
20
1065.522628
30
0.000000
11
8475.896606
21
1049.354122
31
0.000000
39
0.000000
0
LINE
8
_2-7_家具
6
CONTINUOUS
62
4
10
8464.408681
20
1075.903313
30
0.000000
11
8471.588744
21
1065.522628
31
0.000000
39
0.000000
0
LINE
8
_2-7_家具
6
CONTINUOUS
62
4
10
8452.992759
20
1079.968153
30
0.000000
11
8464.408681
21
1075.903313
31
0.000000
39
0.000000
0
LINE
8
_2-7_家具
6
CONTINUOUS
62
4
10
8440.680317
20
1078.263996
30
0.000000
11
8452.992759
21
1079.968153
31
0.000000
39
0.000000
0
LINE
8
_2-7_家具
6
CONTINUOUS
62
4
10
8431.144365
20
1071.403379
30
0.000000
11
8440.680317
21
1078.263996
31
0.000000
39
0.000000
0
LINE
8
_2-7_家具
6
CONTINUOUS
62
4
10
8426.670546
20
1046.056831
30
0.000000
11
8431.144365
21
1071.403379
31
0.000000
39
0.000000
0
LINE
8
_2-7_家具
6
CONTINUOUS
62
4
10
8424.518371
20
1016.587924
30
0.000000
11
8426.670546
21
1046.056831
31
0.000000
39
0.000000
0
LINE
8
_2-7_家具
6
CONTINUOUS
62
4
10
8418.420103
20
1007.339100
30
0.000000
11
8424.518371
21
1016.587924
31
0.000000
39
0.000000
0
LINE
8
_2-7_家具
6
CONTINUOUS
62
4
10
8407.862944
20
1003.806634
30
0.000000
11
8418.420103
21
1007.339100
31
0.000000
39
0.000000
0
LINE
8
_2-7_家具
6
CONTINUOUS
62
4
10
8396.306529
20
1004.997947
30
0.000000
11
8407.862944
21
1003.806634
31
0.000000
39
0.000000
0
LINE
8
_2-7_家具
6
CONTINUOUS
62
4
10
8387.643389
20
1010.837023
30
0.000000
11
8396.306529
21
1004.997947
31
0.000000
39
0.000000
0
LINE
8
_2-7_家具
6
CONTINUOUS
62
4
10
8384.066967
20
1025.057407
30
0.000000
11
8387.643389
21
1010.837023
31
0.000000
39
0.000000
0
LINE
8
_2-7_家具
6
CONTINUOUS
62
4
10
8382.573353
20
1056.334543
30
0.000000
11
8384.066967
21
1025.057407
31
0.000000
39
0.000000
0
LINE
8
_2-7_家具
6
CONTINUOUS
62
4
10
8378.651846
20
1071.447507
30
0.000000
11
8382.573353
21
1056.334543
31
0.000000
39
0.000000
0
LINE
8
_2-7_家具
6
CONTINUOUS
62
4
10
8369.122919
20
1077.977884
30
0.000000
11
8378.651846
21
1071.447507
31
0.000000
39
0.000000
0
LINE
8
_2-7_家具
6
CONTINUOUS
62
4
10
8356.823648
20
1079.260475
30
0.000000
11
8369.122919
21
1077.977884
31
0.000000
39
0.000000
0
LINE
8
_2-7_家具
6
CONTINUOUS
62
4
10
8345.412994
20
1075.371259
30
0.000000
11
8356.823648
21
1079.260475
31
0.000000
39
0.000000
0
LINE
8
_2-7_家具
6
CONTINUOUS
62
4
10
8338.667581
20
1065.187301
30
0.000000
11
8345.412994
21
1075.371259
31
0.000000
39
0.000000
0
LINE
8
_2-7_家具
6
CONTINUOUS
62
4
10
8334.604704
20
1016.592895
30
0.000000
11
8338.667581
21
1065.187301
31
0.000000
39
0.000000
0
LINE
8
_2-7_家具
6
CONTINUOUS
62
4
10
8328.504680
20
1007.339100
30
0.000000
11
8334.604704
21
1016.592895
31
0.000000
39
0.000000
0
LINE
8
_2-7_家具
6
CONTINUOUS
62
4
10
8317.947520
20
1003.806634
30
0.000000
11
8328.504680
21
1007.339100
31
0.000000
39
0.000000
0
LINE
8
_2-7_家具
6
CONTINUOUS
62
4
10
8306.391106
20
1004.997947
30
0.000000
11
8317.947520
21
1003.806634
31
0.000000
39
0.000000
0
LINE
8
_2-7_家具
6
CONTINUOUS
62
4
10
8297.727965
20
1010.837023
30
0.000000
11
8306.391106
21
1004.997947
31
0.000000
39
0.000000
0
LINE
8
_2-7_家具
6
CONTINUOUS
62
4
10
8294.149788
20
1025.069546
30
0.000000
11
8297.727965
21
1010.837023
31
0.000000
39
0.000000
0
LINE
8
_2-7_家具
6
CONTINUOUS
62
4
10
8291.328516
20
1065.179910
30
0.000000
11
8294.149788
21
1025.069546
31
0.000000
39
0.000000
0
LINE
8
_2-7_家具
6
CONTINUOUS
62
4
10
8284.580469
20
1075.371259
30
0.000000
11
8291.328516
21
1065.179910
31
0.000000
39
0.000000
0
LINE
8
_2-7_家具
6
CONTINUOUS
62
4
10
8273.169815
20
1079.260487
30
0.000000
11
8284.580469
21
1075.371259
31
0.000000
39
0.000000
0
LINE
8
_2-7_家具
6
CONTINUOUS
62
4
10
8260.871422
20
1077.977888
30
0.000000
11
8273.169815
21
1079.260487
31
0.000000
39
0.000000
0
LINE
8
_2-7_家具
6
CONTINUOUS
62
4
10
8251.341617
20
1071.447503
30
0.000000
11
8260.871422
21
1077.977888
31
0.000000
39
0.000000
0
LINE
8
_2-7_家具
6
CONTINUOUS
62
4
10
8247.422745
20
1056.346673
30
0.000000
11
8251.341617
21
1071.447503
31
0.000000
39
0.000000
0
LINE
8
_2-7_家具
6
CONTINUOUS
62
4
10
8244.686646
20
1016.585504
30
0.000000
11
8247.422745
21
1056.346673
31
0.000000
39
0.000000
0
LINE
8
_2-7_家具
6
CONTINUOUS
62
4
10
8238.589257
20
1007.339100
30
0.000000
11
8244.686646
21
1016.585504
31
0.000000
39
0.000000
0
LINE
8
_2-7_家具
6
CONTINUOUS
62
4
10
8228.032097
20
1003.806634
30
0.000000
11
8238.589257
21
1007.339100
31
0.000000
39
0.000000
0
LINE
8
_2-7_家具
6
CONTINUOUS
62
4
10
8216.475682
20
1004.997947
30
0.000000
11
8228.032097
21
1003.806634
31
0.000000
39
0.000000
0
LINE
8
_2-7_家具
6
CONTINUOUS
62
4
10
8207.812542
20
1010.837023
30
0.000000
11
8216.475682
21
1004.997947
31
0.000000
39
0.000000
0
LINE
8
_2-7_家具
6
CONTINUOUS
62
4
10
8204.236121
20
1025.057407
30
0.000000
11
8207.812542
21
1010.837023
31
0.000000
39
0.000000
0
LINE
8
_2-7_家具
6
CONTINUOUS
62
4
10
8202.742506
20
1056.334543
30
0.000000
11
8204.236121
21
1025.057407
31
0.000000
39
0.000000
0
LINE
8
_2-7_家具
6
CONTINUOUS
62
4
10
8198.821000
20
1071.447507
30
0.000000
11
8202.742506
21
1056.334543
31
0.000000
39
0.000000
0
LINE
8
_2-7_家具
6
CONTINUOUS
62
4
10
8189.292072
20
1077.977884
30
0.000000
11
8198.821000
21
1071.447507
31
0.000000
39
0.000000
0
LINE
8
_2-7_家具
6
CONTINUOUS
62
4
10
8176.992801
20
1079.260475
30
0.000000
11
8189.292072
21
1077.977884
31
0.000000
39
0.000000
0
LINE
8
_2-7_家具
6
CONTINUOUS
62
4
10
8165.582148
20
1075.371259
30
0.000000
11
8176.992801
21
1079.260475
31
0.000000
39
0.000000
0
LINE
8
_2-7_家具
6
CONTINUOUS
62
4
10
8158.834101
20
1065.179908
30
0.000000
11
8165.582148
21
1075.371259
31
0.000000
39
0.000000
0
LINE
8
_2-7_家具
6
CONTINUOUS
62
4
10
8156.012829
20
1025.069553
30
0.000000
11
8158.834101
21
1065.179908
31
0.000000
39
0.000000
0
LINE
8
_2-7_家具
6
CONTINUOUS
62
4
10
8152.434651
20
1010.837031
30
0.000000
11
8156.012829
21
1025.069553
31
0.000000
39
0.000000
0
LINE
8
_2-7_家具
6
CONTINUOUS
62
4
10
8143.771511
20
1004.997923
30
0.000000
11
8152.434651
21
1010.837031
31
0.000000
39
0.000000
0
LINE
8
_2-7_家具
6
CONTINUOUS
62
4
10
8132.215096
20
1003.806634
30
0.000000
11
8143.771511
21
1004.997923
31
0.000000
39
0.000000
0
LINE
8
_2-7_家具
6
CONTINUOUS
62
4
10
8121.657937
20
1007.339100
30
0.000000
11
8132.215096
21
1003.806634
31
0.000000
39
0.000000
0
LINE
8
_2-7_家具
6
CONTINUOUS
62
4
10
8115.560547
20
1016.585504
30
0.000000
11
8121.657937
21
1007.339100
31
0.000000
39
0.000000
0
LINE
8
_2-7_家具
6
CONTINUOUS
62
4
10
8112.824449
20
1056.346681
30
0.000000
11
8115.560547
21
1016.585504
31
0.000000
39
0.000000
0
LINE
8
_2-7_家具
6
CONTINUOUS
62
4
10
8108.905576
20
1071.447507
30
0.000000
11
8112.824449
21
1056.346681
31
0.000000
39
0.000000
0
LINE
8
_2-7_家具
6
CONTINUOUS
62
4
10
8099.376649
20
1077.977884
30
0.000000
11
8108.905576
21
1071.447507
31
0.000000
39
0.000000
0
LINE
8
_2-7_家具
6
CONTINUOUS
62
4
10
8087.078256
20
1079.260475
30
0.000000
11
8099.376649
21
1077.977884
31
0.000000
39
0.000000
0
LINE
8
_2-7_家具
6
CONTINUOUS
62
4
10
8075.666724
20
1075.371259
30
0.000000
11
8087.078256
21
1079.260475
31
0.000000
39
0.000000
0
LINE
8
_2-7_家具
6
CONTINUOUS
62
4
10
8068.919555
20
1065.182332
30
0.000000
11
8075.666724
21
1075.371259
31
0.000000
39
0.000000
0
LINE
8
_2-7_家具
6
CONTINUOUS
62
4
10
8066.668157
20
1035.277717
30
0.000000
11
8068.919555
21
1065.182332
31
0.000000
39
0.000000
0
LINE
8
_2-7_家具
6
CONTINUOUS
62
4
10
8062.495520
20
1010.801556
30
0.000000
11
8066.668157
21
1035.277717
31
0.000000
39
0.000000
0
LINE
8
_2-7_家具
6
CONTINUOUS
62
4
10
8053.855210
20
1004.997923
30
0.000000
11
8062.495520
21
1010.801556
31
0.000000
39
0.000000
0
LINE
8
_2-7_家具
6
CONTINUOUS
62
4
10
8042.299673
20
1003.806634
30
0.000000
11
8053.855210
21
1004.997923
31
0.000000
39
0.000000
0
LINE
8
_2-7_家具
6
CONTINUOUS
62
4
10
8031.741635
20
1007.339100
30
0.000000
11
8042.299673
21
1003.806634
31
0.000000
39
0.000000
0
LINE
8
_2-7_家具
6
CONTINUOUS
62
4
10
8025.642489
20
1016.592895
30
0.000000
11
8031.741635
21
1007.339100
31
0.000000
39
0.000000
0
LINE
8
_2-7_家具
6
CONTINUOUS
62
4
10
8021.578734
20
1065.188005
30
0.000000
11
8025.642489
21
1016.592895
31
0.000000
39
0.000000
0
LINE
8
_2-7_家具
6
CONTINUOUS
62
4
10
8014.726195
20
1075.481685
30
0.000000
11
8021.578734
21
1065.188005
31
0.000000
39
0.000000
0
LINE
8
_2-7_家具
6
CONTINUOUS
62
4
10
7996.579787
20
1079.971236
30
0.000000
11
8014.726195
21
1075.481685
31
0.000000
39
0.000000
0
LINE
8
_2-7_家具
6
CONTINUOUS
62
4
10
7985.201623
20
1075.832913
30
0.000000
11
7996.579787
21
1079.971236
31
0.000000
39
0.000000
0
LINE
8
_2-7_家具
6
CONTINUOUS
62
4
10
7977.762526
20
1058.064499
30
0.000000
11
7985.201623
21
1075.832913
31
0.000000
39
0.000000
0
LINE
8
_2-7_家具
6
CONTINUOUS
62
4
10
7977.743209
20
1027.465149
30
0.000000
11
7977.762526
21
1058.064499
31
0.000000
39
0.000000
0
LINE
8
_2-7_家具
6
CONTINUOUS
62
4
10
7981.420609
20
999.971236
30
0.000000
11
7977.743209
21
1027.465149
31
0.000000
39
0.000000
0
LINE
8
_2-7_家具
6
CONTINUOUS
62
4
10
8476.844054
20
1000.121453
30
0.000000
11
8475.009745
21
1049.187076
31
0.000000
39
0.000000
0
LINE
8
_2-7_家具
6
CONTINUOUS
62
4
10
8475.009745
20
1049.187076
30
0.000000
11
8470.788813
21
1065.061239
31
0.000000
39
0.000000
0
LINE
8
_2-7_家具
6
CONTINUOUS
62
4
10
8470.788813
20
1065.061239
30
0.000000
11
8463.894126
21
1075.074631
31
0.000000
39
0.000000
0
LINE
8
_2-7_家具
6
CONTINUOUS
62
4
10
8463.894126
20
1075.074631
30
0.000000
11
8452.911098
21
1078.962190
31
0.000000
39
0.000000
0
LINE
8
_2-7_家具
6
CONTINUOUS
62
4
10
8452.911098
20
1078.962190
30
0.000000
11
8440.983255
21
1077.312919
31
0.000000
39
0.000000
0
LINE
8
_2-7_家具
6
CONTINUOUS
62
4
10
8440.983255
20
1077.312919
30
0.000000
11
8431.886343
21
1070.833674
31
0.000000
39
0.000000
0
LINE
8
_2-7_家具
6
CONTINUOUS
62
4
10
8431.886343
20
1070.833674
30
0.000000
11
8427.561797
21
1045.917989
31
0.000000
39
0.000000
0
LINE
8
_2-7_家具
6
CONTINUOUS
62
4
10
8427.561797
20
1045.917989
30
0.000000
11
8425.359572
21
1016.231228
31
0.000000
39
0.000000
0
LINE
8
_2-7_家具
6
CONTINUOUS
62
4
10
8425.359572
20
1016.231228
30
0.000000
11
8418.936414
21
1006.512353
31
0.000000
39
0.000000
0
LINE
8
_2-7_家具
6
CONTINUOUS
62
4
10
8418.936414
20
1006.512353
30
0.000000
11
8407.953386
21
1002.801515
31
0.000000
39
0.000000
0
LINE
8
_2-7_家具
6
CONTINUOUS
62
4
10
8407.953386
20
1002.801515
30
0.000000
11
8396.025543
21
1004.038461
31
0.000000
39
0.000000
0
LINE
8
_2-7_家具
6
CONTINUOUS
62
4
10
8396.025543
20
1004.038461
30
0.000000
11
8386.928631
21
1010.223198
31
0.000000
39
0.000000
0
LINE
8
_2-7_家具
6
CONTINUOUS
62
4
10
8386.928631
20
1010.223198
30
0.000000
11
8383.180984
21
1024.889872
31
0.000000
39
0.000000
0
LINE
8
_2-7_家具
6
CONTINUOUS
62
4
10
8383.180984
20
1024.889872
30
0.000000
11
8381.686492
21
1056.167000
31
0.000000
39
0.000000
0
LINE
8
_2-7_家具
6
CONTINUOUS
62
4
10
8381.686492
20
1056.167000
30
0.000000
11
8377.937089
21
1070.833674
31
0.000000
39
0.000000
0
LINE
8
_2-7_家具
6
CONTINUOUS
62
4
10
8377.937089
20
1070.833674
30
0.000000
11
8368.841055
21
1077.018403
31
0.000000
39
0.000000
0
LINE
8
_2-7_家具
6
CONTINUOUS
62
4
10
8368.841055
20
1077.018403
30
0.000000
11
8356.914090
21
1078.255349
31
0.000000
39
0.000000
0
LINE
8
_2-7_家具
6
CONTINUOUS
62
4
10
8356.914090
20
1078.255349
30
0.000000
11
8345.929306
21
1074.544511
31
0.000000
39
0.000000
0
LINE
8
_2-7_家具
6
CONTINUOUS
62
4
10
8345.929306
20
1074.544511
30
0.000000
11
8339.507026
21
1064.825636
31
0.000000
39
0.000000
0
LINE
8
_2-7_家具
6
CONTINUOUS
62
4
10
8339.507026
20
1064.825636
30
0.000000
11
8335.444149
21
1016.231228
31
0.000000
39
0.000000
0
LINE
8
_2-7_家具
6
CONTINUOUS
62
4
10
8335.444149
20
1016.231228
30
0.000000
11
8329.020991
21
1006.512353
31
0.000000
39
0.000000
0
LINE
8
_2-7_家具
6
CONTINUOUS
62
4
10
8329.020991
20
1006.512353
30
0.000000
11
8318.037963
21
1002.801515
31
0.000000
39
0.000000
0
LINE
8
_2-7_家具
6
CONTINUOUS
62
4
10
8318.037963
20
1002.801515
30
0.000000
11
8306.110120
21
1004.038461
31
0.000000
39
0.000000
0
LINE
8
_2-7_家具
6
CONTINUOUS
62
4
10
8306.110120
20
1004.038461
30
0.000000
11
8297.013208
21
1010.223198
31
0.000000
39
0.000000
0
LINE
8
_2-7_家具
6
CONTINUOUS
62
4
10
8297.013208
20
1010.223198
30
0.000000
11
8293.265561
21
1024.889872
31
0.000000
39
0.000000
0
LINE
8
_2-7_家具
6
CONTINUOUS
62
4
10
8293.265561
20
1024.889872
30
0.000000
11
8290.486437
21
1064.825636
31
0.000000
39
0.000000
0
LINE
8
_2-7_家具
6
CONTINUOUS
62
4
10
8290.486437
20
1064.825636
30
0.000000
11
8284.063280
21
1074.544511
31
0.000000
39
0.000000
0
LINE
8
_2-7_家具
6
CONTINUOUS
62
4
10
8284.063280
20
1074.544511
30
0.000000
11
8273.080251
21
1078.255364
31
0.000000
39
0.000000
0
LINE
8
_2-7_家具
6
CONTINUOUS
62
4
10
8273.080251
20
1078.255364
30
0.000000
11
8261.152408
21
1077.018403
31
0.000000
39
0.000000
0
LINE
8
_2-7_家具
6
CONTINUOUS
62
4
10
8261.152408
20
1077.018403
30
0.000000
11
8252.055496
21
1070.833674
31
0.000000
39
0.000000
0
LINE
8
_2-7_家具
6
CONTINUOUS
62
4
10
8252.055496
20
1070.833674
30
0.000000
11
8248.307849
21
1056.167000
31
0.000000
39
0.000000
0
LINE
8
_2-7_家具
6
CONTINUOUS
62
4
10
8248.307849
20
1056.167000
30
0.000000
11
8245.528725
21
1016.231228
31
0.000000
39
0.000000
0
LINE
8
_2-7_家具
6
CONTINUOUS
62
4
10
8245.528725
20
1016.231228
30
0.000000
11
8239.105568
21
1006.512353
31
0.000000
39
0.000000
0
LINE
8
_2-7_家具
6
CONTINUOUS
62
4
10
8239.105568
20
1006.512353
30
0.000000
11
8228.122539
21
1002.801515
31
0.000000
39
0.000000
0
LINE
8
_2-7_家具
6
CONTINUOUS
62
4
10
8228.122539
20
1002.801515
30
0.000000
11
8216.194697
21
1004.038461
31
0.000000
39
0.000000
0
LINE
8
_2-7_家具
6
CONTINUOUS
62
4
10
8216.194697
20
1004.038461
30
0.000000
11
8207.097785
21
1010.223198
31
0.000000
39
0.000000
0
LINE
8
_2-7_家具
6
CONTINUOUS
62
4
10
8207.097785
20
1010.223198
30
0.000000
11
8203.350138
21
1024.889872
31
0.000000
39
0.000000
0
LINE
8
_2-7_家具
6
CONTINUOUS
62
4
10
8203.350138
20
1024.889872
30
0.000000
11
8201.855645
21
1056.167000
31
0.000000
39
0.000000
0
LINE
8
_2-7_家具
6
CONTINUOUS
62
4
10
8201.855645
20
1056.167000
30
0.000000
11
8198.106242
21
1070.833674
31
0.000000
39
0.000000
0
LINE
8
_2-7_家具
6
CONTINUOUS
62
4
10
8198.106242
20
1070.833674
30
0.000000
11
8189.010208
21
1077.018403
31
0.000000
39
0.000000
0
LINE
8
_2-7_家具
6
CONTINUOUS
62
4
10
8189.010208
20
1077.018403
30
0.000000
11
8177.083244
21
1078.255349
31
0.000000
39
0.000000
0
LINE
8
_2-7_家具
6
CONTINUOUS
62
4
10
8177.083244
20
1078.255349
30
0.000000
11
8166.098459
21
1074.544511
31
0.000000
39
0.000000
0
LINE
8
_2-7_家具
6
CONTINUOUS
62
4
10
8166.098459
20
1074.544511
30
0.000000
11
8159.676180
21
1064.825636
31
0.000000
39
0.000000
0
LINE
8
_2-7_家具
6
CONTINUOUS
62
4
10
8159.676180
20
1064.825636
30
0.000000
11
8156.897933
21
1024.889872
31
0.000000
39
0.000000
0
LINE
8
_2-7_家具
6
CONTINUOUS
62
4
10
8156.897933
20
1024.889872
30
0.000000
11
8153.148531
21
1010.223198
31
0.000000
39
0.000000
0
LINE
8
_2-7_家具
6
CONTINUOUS
62
4
10
8153.148531
20
1010.223198
30
0.000000
11
8144.052497
21
1004.038446
31
0.000000
39
0.000000
0
LINE
8
_2-7_家具
6
CONTINUOUS
62
4
10
8144.052497
20
1004.038446
30
0.000000
11
8132.125532
21
1002.801508
31
0.000000
39
0.000000
0
LINE
8
_2-7_家具
6
CONTINUOUS
62
4
10
8132.125532
20
1002.801508
30
0.000000
11
8121.140747
21
1006.512353
31
0.000000
39
0.000000
0
LINE
8
_2-7_家具
6
CONTINUOUS
62
4
10
8121.140747
20
1006.512353
30
0.000000
11
8114.718468
21
1016.231228
31
0.000000
39
0.000000
0
LINE
8
_2-7_家具
6
CONTINUOUS
62
4
10
8114.718468
20
1016.231228
30
0.000000
11
8111.940222
21
1056.167000
31
0.000000
39
0.000000
0
LINE
8
_2-7_家具
6
CONTINUOUS
62
4
10
8111.940222
20
1056.167000
30
0.000000
11
8108.190819
21
1070.833674
31
0.000000
39
0.000000
0
LINE
8
_2-7_家具
6
CONTINUOUS
62
4
10
8108.190819
20
1070.833674
30
0.000000
11
8099.095663
21
1077.018403
31
0.000000
39
0.000000
0
LINE
8
_2-7_家具
6
CONTINUOUS
62
4
10
8099.095663
20
1077.018403
30
0.000000
11
8087.167820
21
1078.255349
31
0.000000
39
0.000000
0
LINE
8
_2-7_家具
6
CONTINUOUS
62
4
10
8087.167820
20
1078.255349
30
0.000000
11
8076.183036
21
1074.544511
31
0.000000
39
0.000000
0
LINE
8
_2-7_家具
6
CONTINUOUS
62
4
10
8076.183036
20
1074.544511
30
0.000000
11
8069.760756
21
1064.825636
31
0.000000
39
0.000000
0
LINE
8
_2-7_家具
6
CONTINUOUS
62
4
10
8069.760756
20
1064.825636
30
0.000000
11
8067.558531
21
1035.138875
31
0.000000
39
0.000000
0
LINE
8
_2-7_家具
6
CONTINUOUS
62
4
10
8067.558531
20
1035.138875
30
0.000000
11
8063.233107
21
1010.223198
31
0.000000
39
0.000000
0
LINE
8
_2-7_家具
6
CONTINUOUS
62
4
10
8063.233107
20
1010.223198
30
0.000000
11
8054.137951
21
1004.038446
31
0.000000
39
0.000000
0
LINE
8
_2-7_家具
6
CONTINUOUS
62
4
10
8054.137951
20
1004.038446
30
0.000000
11
8042.210109
21
1002.801508
31
0.000000
39
0.000000
0
LINE
8
_2-7_家具
6
CONTINUOUS
62
4
10
8042.210109
20
1002.801508
30
0.000000
11
8031.225324
21
1006.512353
31
0.000000
39
0.000000
0
LINE
8
_2-7_家具
6
CONTINUOUS
62
4
10
8031.225324
20
1006.512353
30
0.000000
11
8024.803045
21
1016.231228
31
0.000000
39
0.000000
0
LINE
8
_2-7_家具
6
CONTINUOUS
62
4
10
8024.803045
20
1016.231228
30
0.000000
11
8020.739289
21
1064.825636
31
0.000000
39
0.000000
0
LINE
8
_2-7_家具
6
CONTINUOUS
62
4
10
8020.739289
20
1064.825636
30
0.000000
11
8014.237982
21
1074.632865
31
0.000000
39
0.000000
0
LINE
8
_2-7_家具
6
CONTINUOUS
62
4
10
8014.237982
20
1074.632865
30
0.000000
11
7996.623691
21
1078.962175
31
0.000000
39
0.000000
0
LINE
8
_2-7_家具
6
CONTINUOUS
62
4
10
7996.623691
20
1078.962175
30
0.000000
11
7985.796961
21
1075.074631
31
0.000000
39
0.000000
0
LINE
8
_2-7_家具
6
CONTINUOUS
62
4
10
7985.796961
20
1075.074631
30
0.000000
11
7978.640607
21
1057.845712
31
0.000000
39
0.000000
0
LINE
8
_2-7_家具
6
CONTINUOUS
62
4
10
7978.640607
20
1057.845712
30
0.000000
11
7978.640607
21
1027.540470
31
0.000000
39
0.000000
0
LINE
8
_2-7_家具
6
CONTINUOUS
62
4
10
7978.640607
20
1027.540470
30
0.000000
11
7982.309226
21
1000.121453
31
0.000000
39
0.000000
0
LINE
8
_2-7_家具
6
CONTINUOUS
62
4
10
8476.844054
20
1000.121453
30
0.000000
11
8477.743209
21
1000.163865
31
0.000000
39
0.000000
0
LINE
8
_2-7_家具
6
CONTINUOUS
62
4
10
7982.309226
20
1000.121453
30
0.000000
11
7981.420609
21
999.971236
31
0.000000
39
0.000000
0
LINE
8
_2-1_壁芯
6
CENTER1
62
4
10
10010.000000
20
1820.000000
30
0.000000
11
10010.000000
21
3640.000000
31
0.000000
39
0.000000
0
LINE
8
_2-1_壁芯
6
CENTER1
62
4
10
10920.000000
20
3640.000000
30
0.000000
11
9100.000000
21
3640.000000
31
0.000000
39
0.000000
0
LINE
8
_2-1_壁芯
6
CENTER1
62
4
10
7280.000000
20
3640.000000
30
0.000000
11
7280.000000
21
0.000000
31
0.000000
39
0.000000
0
LINE
8
_2-1_壁芯
6
CENTER1
62
4
10
0.000000
20
0.000000
30
0.000000
11
10920.000000
21
0.000000
31
0.000000
39
0.000000
0
LINE
8
_2-1_壁芯
6
CENTER1
62
4
10
9100.000000
20
6370.000000
30
0.000000
11
7280.000000
21
6370.000000
31
0.000000
39
0.000000
0
LINE
8
_2-1_壁芯
6
CENTER1
62
4
10
7280.000000
20
7280.000000
30
0.000000
11
7280.000000
21
5460.000000
31
0.000000
39
0.000000
0
LINE
8
_2-1_壁芯
6
CENTER1
62
4
10
9100.000000
20
5005.000000
30
0.000000
11
9100.000000
21
6370.000000
31
0.000000
39
0.000000
0
LINE
8
_2-1_壁芯
6
CENTER1
62
4
10
0.000000
20
6370.000000
30
0.000000
11
0.000000
21
0.000000
31
0.000000
39
0.000000
0
LINE
8
_2-1_壁芯
6
CENTER1
62
4
10
10010.000000
20
1820.000000
30
0.000000
11
10920.000000
21
1820.000000
31
0.000000
39
0.000000
0
LINE
8
_2-1_壁芯
6
CENTER1
62
4
10
2730.000000
20
6370.000000
30
0.000000
11
0.000000
21
6370.000000
31
0.000000
39
0.000000
0
LINE
8
_2-1_壁芯
6
CENTER1
62
4
10
2730.000000
20
5460.000000
30
0.000000
11
2730.000000
21
7280.000000
31
0.000000
39
0.000000
0
LINE
8
_2-1_壁芯
6
CENTER1
62
4
10
3640.000000
20
5460.000000
30
0.000000
11
3640.000000
21
7280.000000
31
0.000000
39
0.000000
0
LINE
8
_2-1_壁芯
6
CENTER1
62
4
10
7280.000000
20
7280.000000
30
0.000000
11
2730.000000
21
7280.000000
31
0.000000
39
0.000000
0
LINE
8
_2-1_壁芯
6
CENTER1
62
4
10
5460.000000
20
5460.000000
30
0.000000
11
5460.000000
21
7280.000000
31
0.000000
39
0.000000
0
LINE
8
_2-1_壁芯
6
CENTER1
62
4
10
10920.000000
20
0.000000
30
0.000000
11
10920.000000
21
3640.000000
31
0.000000
39
0.000000
0
LINE
8
_3-8_屋根伏
6
CONTINUOUS
62
7
10
10010.000000
20
-50.000000
30
0.000000
11
10010.000000
21
-113.397460
31
0.000000
39
0.000000
0
LINE
8
_3-8_屋根伏
6
CONTINUOUS
62
7
10
10010.000000
20
-200.000000
30
0.000000
11
10053.301270
21
-113.397460
31
0.000000
39
0.000000
0
LINE
8
_3-8_屋根伏
6
CONTINUOUS
62
7
10
10053.301270
20
-113.397460
30
0.000000
11
9966.698730
21
-113.397460
31
0.000000
39
0.000000
0
LINE
8
_3-8_屋根伏
6
CONTINUOUS
62
7
10
9966.698730
20
-113.397460
30
0.000000
11
10010.000000
21
-200.000000
31
0.000000
39
0.000000
0
LINE
8
_3-8_屋根伏
6
CONTINUOUS
62
7
10
10010.000000
20
3690.000000
30
0.000000
11
10010.000000
21
3753.397460
31
0.000000
39
0.000000
0
LINE
8
_3-8_屋根伏
6
CONTINUOUS
62
7
10
10010.000000
20
3840.000000
30
0.000000
11
9966.698730
21
3753.397460
31
0.000000
39
0.000000
0
LINE
8
_3-8_屋根伏
6
CONTINUOUS
62
7
10
9966.698730
20
3753.397460
30
0.000000
11
10053.301270
21
3753.397460
31
0.000000
39
0.000000
0
LINE
8
_3-8_屋根伏
6
CONTINUOUS
62
7
10
10053.301270
20
3753.397460
30
0.000000
11
10010.000000
21
3840.000000
31
0.000000
39
0.000000
0
LINE
8
_3-8_屋根伏
6
CONTINUOUS
62
7
10
910.000000
20
6420.000000
30
0.000000
11
910.000000
21
6483.397460
31
0.000000
39
0.000000
0
LINE
8
_3-8_屋根伏
6
CONTINUOUS
62
7
10
910.000000
20
6570.000000
30
0.000000
11
866.698730
21
6483.397460
31
0.000000
39
0.000000
0
LINE
8
_3-8_屋根伏
6
CONTINUOUS
62
7
10
866.698730
20
6483.397460
30
0.000000
11
953.301270
21
6483.397460
31
0.000000
39
0.000000
0
LINE
8
_3-8_屋根伏
6
CONTINUOUS
62
7
10
953.301270
20
6483.397460
30
0.000000
11
910.000000
21
6570.000000
31
0.000000
39
0.000000
0
LINE
8
_3-8_屋根伏
6
CONTINUOUS
62
7
10
910.000000
20
-50.000000
30
0.000000
11
910.000000
21
-113.397460
31
0.000000
39
0.000000
0
LINE
8
_3-8_屋根伏
6
CONTINUOUS
62
7
10
910.000000
20
-200.000000
30
0.000000
11
953.301270
21
-113.397460
31
0.000000
39
0.000000
0
LINE
8
_3-8_屋根伏
6
CONTINUOUS
62
7
10
953.301270
20
-113.397460
30
0.000000
11
866.698730
21
-113.397460
31
0.000000
39
0.000000
0
LINE
8
_3-8_屋根伏
6
CONTINUOUS
62
7
10
866.698730
20
-113.397460
30
0.000000
11
910.000000
21
-200.000000
31
0.000000
39
0.000000
0
LINE
8
_2-1_壁芯
6
CENTER1
62
4
10
6370.000000
20
5460.000000
30
0.000000
11
6370.000000
21
4550.000000
31
0.000000
39
0.000000
0
LINE
8
_2-1_壁芯
6
CENTER1
62
4
10
5460.000000
20
910.000000
30
0.000000
11
5460.000000
21
4550.000000
31
0.000000
39
0.000000
0
LINE
8
_2-1_壁芯
6
CENTER1
62
4
10
9100.000000
20
5460.000000
30
0.000000
11
9100.000000
21
910.000000
31
0.000000
39
0.000000
0
LINE
8
_2-1_壁芯
6
CENTER1
62
4
10
9100.000000
20
910.000000
30
0.000000
11
1820.000000
21
910.000000
31
0.000000
39
0.000000
0
LINE
8
_2-1_壁芯
6
CENTER1
62
4
10
5460.000000
20
4550.000000
30
0.000000
11
9100.000000
21
4550.000000
31
0.000000
39
0.000000
0
LINE
8
_2-1_壁芯
6
CENTER1
62
4
10
1820.000000
20
5460.000000
30
0.000000
11
9100.000000
21
5460.000000
31
0.000000
39
0.000000
0
LINE
8
_2-1_壁芯
6
CENTER1
62
4
10
1820.000000
20
5460.000000
30
0.000000
11
1820.000000
21
910.000000
31
0.000000
39
0.000000
0
LINE
8
_2-1_壁芯
6
CENTER1
62
4
10
4550.000000
20
4550.000000
30
0.000000
11
1820.000000
21
4550.000000
31
0.000000
39
0.000000
0
LINE
8
_2-1_壁芯
6
CENTER1
62
4
10
4550.000000
20
5460.000000
30
0.000000
11
4550.000000
21
910.000000
31
0.000000
39
0.000000
0
LINE
8
_2-1_壁芯
6
CENTER1
62
4
10
4550.000000
20
2275.000000
30
0.000000
11
5460.000000
21
2275.000000
31
0.000000
39
0.000000
0
CIRCLE
8
_2-4_雑仕上
6
CONTINUOUS
62
4
10
5005.000000
20
3640.000000
30
0.000000
39
0.000000
40
30.000000
0
CIRCLE
8
_3-8_屋根伏
6
CONTINUOUS
62
7
10
10010.000000
20
0.000000
30
0.000000
39
0.000000
40
50.000000
0
CIRCLE
8
_3-8_屋根伏
6
CONTINUOUS
62
7
10
10010.000000
20
3640.000000
30
0.000000
39
0.000000
40
50.000000
0
CIRCLE
8
_3-8_屋根伏
6
CONTINUOUS
62
7
10
910.000000
20
6370.000000
30
0.000000
39
0.000000
40
50.000000
0
CIRCLE
8
_3-8_屋根伏
6
CONTINUOUS
62
7
10
910.000000
20
0.000000
30
0.000000
39
0.000000
40
50.000000
0
ARC
8
_2-5_建具
6
CONTINUOUS
62
7
10
5495.000000
20
1012.500000
30
0.000000
39
0.000000
40
580.000000
50
0.000000
51
90.000000
0
ARC
8
_2-5_建具
6
CONTINUOUS
62
7
10
5495.000000
20
2172.500000
30
0.000000
39
0.000000
40
580.000000
50
270.000000
51
0.000000
0
ARC
8
_2-5_建具
6
CONTINUOUS
62
7
10
5495.000000
20
3095.000000
30
0.000000
39
0.000000
40
717.500000
50
270.000000
51
0.000000
0
POINT
8
_2-D_寸法
62
7
10
10465.000000
20
4550.000000
30
0.000000
39
0.000000
0
POINT
8
_2-D_寸法
62
7
10
10465.000000
20
910.000000
30
0.000000
39
0.000000
0
POINT
8
_2-D_寸法
62
7
10
10465.000000
20
5460.000000
30
0.000000
39
0.000000
0
POINT
8
_2-D_寸法
62
7
10
10465.000000
20
4550.000000
30
0.000000
39
0.000000
0
POINT
8
_2-D_寸法
62
7
10
10920.000000
20
5460.000000
30
0.000000
39
0.000000
0
POINT
8
_2-D_寸法
62
7
10
10920.000000
20
910.000000
30
0.000000
39
0.000000
0
POINT
8
_2-D_寸法
62
7
10
4550.000000
20
6825.000000
30
0.000000
39
0.000000
0
POINT
8
_2-D_寸法
62
7
10
1820.000000
20
6825.000000
30
0.000000
39
0.000000
0
POINT
8
_2-D_寸法
62
7
10
6370.000000
20
6825.000000
30
0.000000
39
0.000000
0
POINT
8
_2-D_寸法
62
7
10
4550.000000
20
6825.000000
30
0.000000
39
0.000000
0
POINT
8
_2-D_寸法
62
7
10
7280.000000
20
6825.000000
30
0.000000
39
0.000000
0
POINT
8
_2-D_寸法
62
7
10
6370.000000
20
6825.000000
30
0.000000
39
0.000000
0
POINT
8
_2-D_寸法
62
7
10
9100.000000
20
6825.000000
30
0.000000
39
0.000000
0
POINT
8
_2-D_寸法
62
7
10
7280.000000
20
6825.000000
30
0.000000
39
0.000000
0
POINT
8
_2-D_寸法
62
7
10
9100.000000
20
7280.000000
30
0.000000
39
0.000000
0
POINT
8
_2-D_寸法
62
7
10
1820.000000
20
7280.000000
30
0.000000
39
0.000000
0
POINT
8
_2-D_寸法
62
7
10
455.000000
20
4550.000000
30
0.000000
39
0.000000
0
POINT
8
_2-D_寸法
62
7
10
455.000000
20
910.000000
30
0.000000
39
0.000000
0
POINT
8
_2-D_寸法
62
7
10
455.000000
20
5460.000000
30
0.000000
39
0.000000
0
POINT
8
_2-D_寸法
62
7
10
455.000000
20
4550.000000
30
0.000000
39
0.000000
0
POINT
8
_2-D_寸法
62
7
10
0.000000
20
5460.000000
30
0.000000
39
0.000000
0
POINT
8
_2-D_寸法
62
7
10
0.000000
20
910.000000
30
0.000000
39
0.000000
0
POINT
8
_2-D_寸法
62
7
10
4550.000000
20
-910.000000
30
0.000000
39
0.000000
0
POINT
8
_2-D_寸法
62
7
10
1820.000000
20
-910.000000
30
0.000000
39
0.000000
0
POINT
8
_2-D_寸法
62
7
10
5460.000000
20
-910.000000
30
0.000000
39
0.000000
0
POINT
8
_2-D_寸法
62
7
10
4550.000000
20
-910.000000
30
0.000000
39
0.000000
0
POINT
8
_2-D_寸法
62
7
10
9100.000000
20
-910.000000
30
0.000000
39
0.000000
0
POINT
8
_2-D_寸法
62
7
10
5460.000000
20
-910.000000
30
0.000000
39
0.000000
0
POINT
8
_2-D_寸法
62
7
10
9100.000000
20
-1365.000000
30
0.000000
39
0.000000
0
POINT
8
_2-D_寸法
62
7
10
1820.000000
20
-1365.000000
30
0.000000
39
0.000000
0
TEXT
8
_2-4_雑仕上
62
4
39
1.000000
10
4905.000000
20
3410.000000
30
0
40
200.000000
1
DN
50
0.000000
7
STANDARD
0
TEXT
8
_2-4_雑仕上
62
4
39
1.000000
10
6170.000000
20
5035.000000
30
0
40
200.000000
1
 4
50
0.000000
7
STANDARD
0
TEXT
8
_2-4_雑仕上
62
4
39
1.000000
10
5942.500000
20
5035.000000
30
0
40
200.000000
1
 5
50
0.000000
7
STANDARD
0
TEXT
8
_2-4_雑仕上
62
4
39
1.000000
10
5715.000000
20
5035.000000
30
0
40
200.000000
1
 6
50
0.000000
7
STANDARD
0
TEXT
8
_2-4_雑仕上
62
4
39
1.000000
10
5487.500000
20
5035.000000
30
0
40
200.000000
1
 7
50
0.000000
7
STANDARD
0
TEXT
8
_2-4_雑仕上
62
4
39
1.000000
10
5260.000000
20
5035.000000
30
0
40
200.000000
1
 8
50
0.000000
7
STANDARD
0
TEXT
8
_2-4_雑仕上
62
4
39
1.000000
10
4955.897460
20
4899.926131
30
0
40
200.000000
1
 9
50
0.000000
7
STANDARD
0
TEXT
8
_2-4_雑仕上
62
4
39
1.000000
10
4760.073869
20
4630.897460
30
0
40
200.000000
1
10
50
0.000000
7
STANDARD
0
TEXT
8
_2-4_雑仕上
62
4
39
1.000000
10
4725.000000
20
4300.000000
30
0
40
200.000000
1
11
50
0.000000
7
STANDARD
0
TEXT
8
_2-4_雑仕上
62
4
39
1.000000
10
4725.000000
20
3996.666667
30
0
40
200.000000
1
12
50
0.000000
7
STANDARD
0
TEXT
8
_2-4_雑仕上
62
4
39
1.000000
10
4725.000000
20
3693.333333
30
0
40
200.000000
1
13
50
0.000000
7
STANDARD
0
TEXT
8
_2-4_雑仕上
62
7
39
1.000000
10
4835.000000
20
102.500000
30
0
40
250.000000
1
バルコニー
50
0.000000
7
STANDARD
0
TEXT
8
_2-E_文字
62
7
39
1.000000
10
7030.000000
20
2605.000000
30
0
40
250.000000
1
洋室
50
0.000000
7
STANDARD
0
TEXT
8
_2-E_文字
62
7
39
1.000000
10
6830.000000
20
2380.000000
30
0
40
200.000000
1
（8.0帖）
50
0.000000
7
STANDARD
0
TEXT
8
_2-E_文字
62
7
39
1.000000
10
4630.000000
20
2832.500000
30
0
40
250.000000
1
ホール
50
0.000000
7
STANDARD
0
TEXT
8
_2-E_文字
62
7
39
1.000000
10
4755.000000
20
1467.500000
30
0
40
250.000000
1
収納
50
0.000000
7
STANDARD
0
TEXT
8
_2-E_文字
62
7
39
1.000000
10
2935.000000
20
2605.000000
30
0
40
250.000000
1
洋室
50
0.000000
7
STANDARD
0
TEXT
8
_2-E_文字
62
7
39
1.000000
10
2735.000000
20
2380.000000
30
0
40
200.000000
1
（6.0帖）
50
0.000000
7
STANDARD
0
TEXT
8
_2-E_文字
62
7
39
1.000000
10
2935.000000
20
4880.000000
30
0
40
250.000000
1
収納
50
0.000000
7
STANDARD
0
TEXT
8
_2-E_文字
62
7
39
1.000000
10
7485.000000
20
4880.000000
30
0
40
250.000000
1
収納
50
0.000000
7
STANDARD
0
TEXT
8
_2-D_寸法
62
7
39
1.000000
10
10464.750000
20
2417.500000
30
0
40
250.000000
1
3,640
50
90.000000
7
STANDARD
0
TEXT
8
_2-D_寸法
62
7
39
1.000000
10
10464.750000
20
4817.500000
30
0
40
250.000000
1
910
50
90.000000
7
STANDARD
0
TEXT
8
_2-D_寸法
62
7
39
1.000000
10
10919.750000
20
2872.500000
30
0
40
250.000000
1
4,550
50
90.000000
7
STANDARD
0
TEXT
8
_2-D_寸法
62
7
39
1.000000
10
2872.500000
20
6825.250000
30
0
40
250.000000
1
2,730
50
0.000000
7
STANDARD
0
TEXT
8
_2-D_寸法
62
7
39
1.000000
10
5147.500000
20
6825.250000
30
0
40
250.000000
1
1,820
50
0.000000
7
STANDARD
0
TEXT
8
_2-D_寸法
62
7
39
1.000000
10
6637.500000
20
6825.250000
30
0
40
250.000000
1
910
50
0.000000
7
STANDARD
0
TEXT
8
_2-D_寸法
62
7
39
1.000000
10
7877.500000
20
6825.250000
30
0
40
250.000000
1
1,820
50
0.000000
7
STANDARD
0
TEXT
8
_2-D_寸法
62
7
39
1.000000
10
5147.500000
20
7280.250000
30
0
40
250.000000
1
7,280
50
0.000000
7
STANDARD
0
TEXT
8
_2-D_寸法
62
7
39
1.000000
10
454.750000
20
2417.500000
30
0
40
250.000000
1
3,640
50
90.000000
7
STANDARD
0
TEXT
8
_2-D_寸法
62
7
39
1.000000
10
454.750000
20
4817.500000
30
0
40
250.000000
1
910
50
90.000000
7
STANDARD
0
TEXT
8
_2-D_寸法
62
7
39
1.000000
10
-0.250000
20
2872.500000
30
0
40
250.000000
1
4,550
50
90.000000
7
STANDARD
0
TEXT
8
_2-D_寸法
62
7
39
1.000000
10
2872.500000
20
-909.750000
30
0
40
250.000000
1
2,730
50
0.000000
7
STANDARD
0
TEXT
8
_2-D_寸法
62
7
39
1.000000
10
4817.500000
20
-909.750000
30
0
40
250.000000
1
910
50
0.000000
7
STANDARD
0
TEXT
8
_2-D_寸法
62
7
39
1.000000
10
6967.500000
20
-909.750000
30
0
40
250.000000
1
3,640
50
0.000000
7
STANDARD
0
TEXT
8
_2-D_寸法
62
7
39
1.000000
10
5147.500000
20
-1364.750000
30
0
40
250.000000
1
7,280
50
0.000000
7
STANDARD
0
TEXT
8
_3-8_屋根伏
62
7
39
1.000000
10
10051.053391
20
353.553391
30
0
40
250.000000
1
3.5寸
50
0.000000
7
STANDARD
0
TEXT
8
_3-8_屋根伏
62
7
39
1.000000
10
9343.946609
20
3036.446609
30
0
40
250.000000
1
3.5寸
50
0.000000
7
STANDARD
0
TEXT
8
_3-8_屋根伏
62
7
39
1.000000
10
243.946609
20
5766.446609
30
0
40
250.000000
1
3.5寸
50
0.000000
7
STANDARD
0
TEXT
8
_3-8_屋根伏
62
7
39
1.000000
10
951.053391
20
353.553391
30
0
40
250.000000
1
3.5寸
50
0.000000
7
STANDARD
0
ENDSEC
0
EOF
