0
SECTION
2
HEADER
9
$EXTMIN
10
0
20
0
30
0
9
$EXTMAX
10
42000.000000
20
29700.000000
30
0
9
$LIMMIN
10
0
20
0
9
$LIMMAX
10
42000.000000
20
29700.000000
9
$INSBASE
10
0
20
0
30
0
9
$LTSCALE
40
100
0
ENDSEC
0
SECTION
2
TABLES
0
TABLE
2
LAYER
70
256
0
LAYER
2
_0-0_
70
0
62
4
6
CONTINUOUS
0
LAYER
2
_0-1_敷地図
70
0
62
3
6
CONTINUOUS
0
LAYER
2
_0-2_道路
70
0
62
7
6
CONTINUOUS
0
LAYER
2
_0-3_三斜
70
0
62
7
6
CONTINUOUS
0
LAYER
2
_0-4_外構
70
0
62
7
6
CONTINUOUS
0
LAYER
2
_0-5_外部部品
70
0
62
7
6
CONTINUOUS
0
LAYER
2
_0-6_隣接建物
70
0
62
7
6
CONTINUOUS
0
LAYER
2
_0-7_点景
70
0
62
7
6
CONTINUOUS
0
LAYER
2
_0-8_敷地雑線
70
0
62
7
6
CONTINUOUS
0
LAYER
2
_0-9_
70
0
62
2
6
CONTINUOUS
0
LAYER
2
_0-A_
70
0
62
4
6
CONTINUOUS
0
LAYER
2
_0-B_記号
70
0
62
7
6
CONTINUOUS
0
LAYER
2
_0-C_ハッチ
70
0
62
4
6
CONTINUOUS
0
LAYER
2
_0-D_寸法
70
0
62
7
6
CONTINUOUS
0
LAYER
2
_0-E_文字
70
0
62
7
6
CONTINUOUS
0
LAYER
2
_0-F_補助線
70
0
62
9
6
CONTINUOUS
0
LAYER
2
_1-0_通芯
70
0
62
4
6
CONTINUOUS
0
LAYER
2
_1-1_外周1階
70
0
62
3
6
CONTINUOUS
0
LAYER
2
_1-2_1階壁芯
70
0
62
7
6
CONTINUOUS
0
LAYER
2
_1-3_外周他
70
0
62
3
6
CONTINUOUS
0
LAYER
2
_1-4_屋根
70
0
62
7
6
CONTINUOUS
0
LAYER
2
_1-5_外周仕上
70
0
62
2
6
CONTINUOUS
0
LAYER
2
_1-6_外部要素
70
0
62
7
6
CONTINUOUS
0
LAYER
2
_1-7_屋根要素
70
0
62
7
6
CONTINUOUS
0
LAYER
2
_1-8_配置雑線
70
0
62
7
6
CONTINUOUS
0
LAYER
2
_1-9_
70
0
62
2
6
CONTINUOUS
0
LAYER
2
_1-A_
70
0
62
4
6
CONTINUOUS
0
LAYER
2
_1-B_記号
70
0
62
7
6
CONTINUOUS
0
LAYER
2
_1-C_ハッチ
70
0
62
4
6
CONTINUOUS
0
LAYER
2
_1-D_寸法
70
0
62
7
6
CONTINUOUS
0
LAYER
2
_1-E_文字
70
0
62
7
6
CONTINUOUS
0
LAYER
2
_1-F_補助線
70
0
62
9
6
CONTINUOUS
0
LAYER
2
_2-0_通芯
70
0
62
7
6
CONTINUOUS
0
LAYER
2
_2-1_壁芯
70
0
62
7
6
CONTINUOUS
0
LAYER
2
_2-2_柱
70
0
62
2
6
CONTINUOUS
0
LAYER
2
_2-3_仕上
70
0
62
7
6
CONTINUOUS
0
LAYER
2
_2-4_雑仕上
70
0
62
7
6
CONTINUOUS
0
LAYER
2
_2-5_建具
70
0
62
3
6
CONTINUOUS
0
LAYER
2
_2-6_設備
70
0
62
7
6
CONTINUOUS
0
LAYER
2
_2-7_家具
70
0
62
4
6
CONTINUOUS
0
LAYER
2
_2-8_雑線
70
0
62
4
6
CONTINUOUS
0
LAYER
2
_2-9_
70
0
62
2
6
CONTINUOUS
0
LAYER
2
_2-A_金物記号
70
0
62
3
6
CONTINUOUS
0
LAYER
2
_2-B_記号
70
0
62
7
6
CONTINUOUS
0
LAYER
2
_2-C_ハッチ
70
0
62
4
6
CONTINUOUS
0
LAYER
2
_2-D_寸法
70
0
62
7
6
CONTINUOUS
0
LAYER
2
_2-E_文字
70
0
62
7
6
CONTINUOUS
0
LAYER
2
_2-F_補助線
70
0
62
9
6
CONTINUOUS
0
LAYER
2
_3-0_通芯
70
0
62
4
6
CONTINUOUS
0
LAYER
2
_3-1_下地線
70
0
62
7
6
CONTINUOUS
0
LAYER
2
_3-2_耐力壁
70
0
62
6
6
CONTINUOUS
0
LAYER
2
_3-3_壁記号
70
0
62
7
6
CONTINUOUS
0
LAYER
2
_3-4_筋かい
70
0
62
2
6
CONTINUOUS
0
LAYER
2
_3-5_筋記号
70
0
62
7
6
CONTINUOUS
0
LAYER
2
_3-6_金物記号
70
0
62
3
6
CONTINUOUS
0
LAYER
2
_3-7_平面外部
70
0
62
7
6
CONTINUOUS
0
LAYER
2
_3-8_屋根伏
70
0
62
7
6
CONTINUOUS
0
LAYER
2
_3-9_重心記号
70
0
62
6
6
CONTINUOUS
0
LAYER
2
_3-A_加算領域
70
0
62
2
6
CONTINUOUS
0
LAYER
2
_3-B_記号
70
0
62
7
6
CONTINUOUS
0
LAYER
2
_3-C_ハッチ
70
0
62
4
6
CONTINUOUS
0
LAYER
2
_3-D_
70
0
62
7
6
CONTINUOUS
0
LAYER
2
_3-E_文字
70
0
62
7
6
CONTINUOUS
0
LAYER
2
_3-F_補助線
70
0
62
9
6
CONTINUOUS
0
LAYER
2
_4-0_立面通芯
70
0
62
4
6
CONTINUOUS
0
LAYER
2
_4-1_立面基準
70
0
62
7
6
CONTINUOUS
0
LAYER
2
_4-2_立面輪郭
70
0
62
3
6
CONTINUOUS
0
LAYER
2
_4-3_立面他
70
0
62
7
6
CONTINUOUS
0
LAYER
2
_4-4_立面雑線
70
0
62
7
6
CONTINUOUS
0
LAYER
2
_4-5_立面建具
70
0
62
3
6
CONTINUOUS
0
LAYER
2
_4-6_立面斜線
70
0
62
7
6
CONTINUOUS
0
LAYER
2
_4-7_
70
0
62
7
6
CONTINUOUS
0
LAYER
2
_4-8_立面GL
70
0
62
6
6
CONTINUOUS
0
LAYER
2
_4-9_
70
0
62
2
6
CONTINUOUS
0
LAYER
2
_4-A_
70
0
62
4
6
CONTINUOUS
0
LAYER
2
_4-B_記号
70
0
62
7
6
CONTINUOUS
0
LAYER
2
_4-C_ハッチ
70
0
62
4
6
CONTINUOUS
0
LAYER
2
_4-D_寸法
70
0
62
7
6
CONTINUOUS
0
LAYER
2
_4-E_文字
70
0
62
7
6
CONTINUOUS
0
LAYER
2
_4-F_補助線
70
0
62
9
6
CONTINUOUS
0
LAYER
2
_5-0_断面通芯
70
0
62
4
6
CONTINUOUS
0
LAYER
2
_5-1_断面基準
70
0
62
7
6
CONTINUOUS
0
LAYER
2
_5-2_断面
70
0
62
2
6
CONTINUOUS
0
LAYER
2
_5-3_外部要素
70
0
62
7
6
CONTINUOUS
0
LAYER
2
_5-4_断面雑線
70
0
62
7
6
CONTINUOUS
0
LAYER
2
_5-5_断面建具
70
0
62
7
6
CONTINUOUS
0
LAYER
2
_5-6_断面斜線
70
0
62
7
6
CONTINUOUS
0
LAYER
2
_5-7_採光斜線
70
0
62
3
6
CONTINUOUS
0
LAYER
2
_5-8_GLライン
70
0
62
6
6
CONTINUOUS
0
LAYER
2
_5-9_壁下地
70
0
62
2
6
CONTINUOUS
0
LAYER
2
_5-A_見える材
70
0
62
4
6
CONTINUOUS
0
LAYER
2
_5-B_記号
70
0
62
7
6
CONTINUOUS
0
LAYER
2
_5-C_ハッチ
70
0
62
4
6
CONTINUOUS
0
LAYER
2
_5-D_寸法
70
0
62
7
6
CONTINUOUS
0
LAYER
2
_5-E_文字
70
0
62
7
6
CONTINUOUS
0
LAYER
2
_5-F_補助線
70
0
62
9
6
CONTINUOUS
0
LAYER
2
_6-0_通芯
70
0
62
4
6
CONTINUOUS
0
LAYER
2
_6-1_壁芯
70
0
62
7
6
CONTINUOUS
0
LAYER
2
_6-2_立上り
70
0
62
2
6
CONTINUOUS
0
LAYER
2
_6-3_底盤
70
0
62
7
6
CONTINUOUS
0
LAYER
2
_6-4_換気口
70
0
62
3
6
CONTINUOUS
0
LAYER
2
_6-5_金物
70
0
62
3
6
CONTINUOUS
0
LAYER
2
_6-6_束
70
0
62
6
6
CONTINUOUS
0
LAYER
2
_6-7_高深基礎
70
0
62
7
6
CONTINUOUS
0
LAYER
2
_6-8_基礎雑線
70
0
62
7
6
CONTINUOUS
0
LAYER
2
_6-9_
70
0
62
7
6
CONTINUOUS
0
LAYER
2
_6-A_
70
0
62
7
6
CONTINUOUS
0
LAYER
2
_6-B_記号
70
0
62
7
6
CONTINUOUS
0
LAYER
2
_6-C_ハッチ
70
0
62
4
6
CONTINUOUS
0
LAYER
2
_6-D_寸法
70
0
62
7
6
CONTINUOUS
0
LAYER
2
_6-E_文字
70
0
62
7
6
CONTINUOUS
0
LAYER
2
_6-F_補助線
70
0
62
9
6
CONTINUOUS
0
LAYER
2
_7-0_土台
70
0
62
3
6
CONTINUOUS
0
LAYER
2
_7-1_火打材
70
0
62
7
6
CONTINUOUS
0
LAYER
2
_7-2_根太
70
0
62
4
6
CONTINUOUS
0
LAYER
2
_7-3_梁桁
70
0
62
3
6
CONTINUOUS
0
LAYER
2
_7-4_枕梁
70
0
62
2
6
CONTINUOUS
0
LAYER
2
_7-5_松丸太
70
0
62
3
6
CONTINUOUS
0
LAYER
2
_7-6_登り梁
70
0
62
3
6
CONTINUOUS
0
LAYER
2
_7-7_その他梁
70
0
62
2
6
CONTINUOUS
0
LAYER
2
_7-8_棟木
70
0
62
3
6
CONTINUOUS
0
LAYER
2
_7-9_母屋
70
0
62
7
6
CONTINUOUS
0
LAYER
2
_7-A_垂木
70
0
62
4
6
CONTINUOUS
0
LAYER
2
_7-B_継ぎ手
70
0
62
2
6
CONTINUOUS
0
LAYER
2
_7-C_小屋束
70
0
62
7
6
CONTINUOUS
0
LAYER
2
_7-D_層柱
70
0
62
7
6
CONTINUOUS
0
LAYER
2
_7-E_下層柱
70
0
62
7
6
CONTINUOUS
0
LAYER
2
_7-F_基準高外
70
0
62
3
6
CONTINUOUS
0
LAYER
2
_8-0_通芯
70
0
62
4
6
CONTINUOUS
0
LAYER
2
_8-1_壁芯
70
0
62
4
6
CONTINUOUS
0
LAYER
2
_8-2_柱
70
0
62
3
6
CONTINUOUS
0
LAYER
2
_8-3_仕上
70
0
62
7
6
CONTINUOUS
0
LAYER
2
_8-4_雑仕上
70
0
62
4
6
CONTINUOUS
0
LAYER
2
_8-5_建具
70
0
62
3
6
CONTINUOUS
0
LAYER
2
_8-6_設備
70
0
62
4
6
CONTINUOUS
0
LAYER
2
_8-7_家具
70
0
62
4
6
CONTINUOUS
0
LAYER
2
_8-8_雑線
70
0
62
4
6
CONTINUOUS
0
LAYER
2
_8-9_
70
0
62
2
6
CONTINUOUS
0
LAYER
2
_8-A_金物記号
70
0
62
3
6
CONTINUOUS
0
LAYER
2
_8-B_記号
70
0
62
7
6
CONTINUOUS
0
LAYER
2
_8-C_ハッチ
70
0
62
4
6
CONTINUOUS
0
LAYER
2
_8-D_寸法
70
0
62
7
6
CONTINUOUS
0
LAYER
2
_8-E_文字
70
0
62
7
6
CONTINUOUS
0
LAYER
2
_8-F_補助線
70
0
62
9
6
CONTINUOUS
0
LAYER
2
_9-0_展開1
70
0
62
7
6
CONTINUOUS
0
LAYER
2
_9-1_展開2
70
0
62
4
6
CONTINUOUS
0
LAYER
2
_9-2_
70
0
62
7
6
CONTINUOUS
0
LAYER
2
_9-3_建具1
70
0
62
7
6
CONTINUOUS
0
LAYER
2
_9-4_建具2
70
0
62
7
6
CONTINUOUS
0
LAYER
2
_9-5_
70
0
62
7
6
CONTINUOUS
0
LAYER
2
_9-6_天井１
70
0
62
7
6
CONTINUOUS
0
LAYER
2
_9-7_天井2
70
0
62
7
6
CONTINUOUS
0
LAYER
2
_9-8_
70
0
62
7
6
CONTINUOUS
0
LAYER
2
_9-9_
70
0
62
7
6
CONTINUOUS
0
LAYER
2
_9-A_
70
0
62
7
6
CONTINUOUS
0
LAYER
2
_9-B_記号
70
0
62
7
6
CONTINUOUS
0
LAYER
2
_9-C_ハッチ
70
0
62
4
6
CONTINUOUS
0
LAYER
2
_9-D_寸法
70
0
62
7
6
CONTINUOUS
0
LAYER
2
_9-E_文字
70
0
62
7
6
CONTINUOUS
0
LAYER
2
_9-F_補助線
70
0
62
9
6
CONTINUOUS
0
LAYER
2
_A-0_
70
0
62
4
6
CONTINUOUS
0
LAYER
2
_A-1_
70
0
62
7
6
CONTINUOUS
0
LAYER
2
_A-2_
70
0
62
3
6
CONTINUOUS
0
LAYER
2
_A-3_
70
0
62
2
6
CONTINUOUS
0
LAYER
2
_A-4_
70
0
62
7
6
CONTINUOUS
0
LAYER
2
_A-5_
70
0
62
3
6
CONTINUOUS
0
LAYER
2
_A-6_
70
0
62
7
6
CONTINUOUS
0
LAYER
2
_A-7_
70
0
62
3
6
CONTINUOUS
0
LAYER
2
_A-8_
70
0
62
7
6
CONTINUOUS
0
LAYER
2
_A-9_
70
0
62
2
6
CONTINUOUS
0
LAYER
2
_A-A_
70
0
62
3
6
CONTINUOUS
0
LAYER
2
_A-B_記号
70
0
62
7
6
CONTINUOUS
0
LAYER
2
_A-C_ハッチ
70
0
62
4
6
CONTINUOUS
0
LAYER
2
_A-D_寸法
70
0
62
7
6
CONTINUOUS
0
LAYER
2
_A-E_文字
70
0
62
7
6
CONTINUOUS
0
LAYER
2
_A-F_補助線
70
0
62
9
6
CONTINUOUS
0
LAYER
2
_B-0_通芯
70
0
62
4
6
CONTINUOUS
0
LAYER
2
_B-1_線
70
0
62
7
6
CONTINUOUS
0
LAYER
2
_B-2_柱束
70
0
62
3
6
CONTINUOUS
0
LAYER
2
_B-3_横架材
70
0
62
3
6
CONTINUOUS
0
LAYER
2
_B-4_基礎
70
0
62
7
6
CONTINUOUS
0
LAYER
2
_B-5_柱壁1
70
0
62
7
6
CONTINUOUS
0
LAYER
2
_B-6_柱壁2
70
0
62
3
6
CONTINUOUS
0
LAYER
2
_B-7_柱壁3
70
0
62
2
6
CONTINUOUS
0
LAYER
2
_B-8_耐力壁
70
0
62
7
6
CONTINUOUS
0
LAYER
2
_B-9_金物1
70
0
62
3
6
CONTINUOUS
0
LAYER
2
_B-A_金物2
70
0
62
3
6
CONTINUOUS
0
LAYER
2
_B-B_記号
70
0
62
7
6
CONTINUOUS
0
LAYER
2
_B-C_ハッチ
70
0
62
4
6
CONTINUOUS
0
LAYER
2
_B-D_寸法
70
0
62
7
6
CONTINUOUS
0
LAYER
2
_B-E_文字
70
0
62
7
6
CONTINUOUS
0
LAYER
2
_B-F_補助線
70
0
62
9
6
CONTINUOUS
0
LAYER
2
_C-0_軸組計算
70
0
62
7
6
CONTINUOUS
0
LAYER
2
_C-1_偏芯率
70
0
62
7
6
CONTINUOUS
0
LAYER
2
_C-2_採光計算
70
0
62
7
6
CONTINUOUS
0
LAYER
2
_C-3_金物計算
70
0
62
7
6
CONTINUOUS
0
LAYER
2
_C-4_ALV
70
0
62
7
6
CONTINUOUS
0
LAYER
2
_C-5_壁量計算
70
0
62
7
6
CONTINUOUS
0
LAYER
2
_C-6_
70
0
62
7
6
CONTINUOUS
0
LAYER
2
_C-7_
70
0
62
7
6
CONTINUOUS
0
LAYER
2
_C-8_
70
0
62
7
6
CONTINUOUS
0
LAYER
2
_C-9_
70
0
62
7
6
CONTINUOUS
0
LAYER
2
_C-A_
70
0
62
7
6
CONTINUOUS
0
LAYER
2
_C-B_
70
0
62
7
6
CONTINUOUS
0
LAYER
2
_C-C_
70
0
62
7
6
CONTINUOUS
0
LAYER
2
_C-D_
70
0
62
7
6
CONTINUOUS
0
LAYER
2
_C-E_文字
70
0
62
7
6
CONTINUOUS
0
LAYER
2
_C-F_補助線
70
0
62
9
6
CONTINUOUS
0
LAYER
2
_D-0_敷地面積
70
0
62
7
6
CONTINUOUS
0
LAYER
2
_D-1_建築面積
70
0
62
7
6
CONTINUOUS
0
LAYER
2
_D-2_床面積
70
0
62
7
6
CONTINUOUS
0
LAYER
2
_D-3_1_4面積
70
0
62
7
6
CONTINUOUS
0
LAYER
2
_D-4_見付面積
70
0
62
7
6
CONTINUOUS
0
LAYER
2
_D-5_採光面積分割
70
0
62
7
6
CONTINUOUS
0
LAYER
2
_D-6_
70
0
62
7
6
CONTINUOUS
0
LAYER
2
_D-7_
70
0
62
7
6
CONTINUOUS
0
LAYER
2
_D-8_敷地表
70
0
62
7
6
CONTINUOUS
0
LAYER
2
_D-9_建築表
70
0
62
7
6
CONTINUOUS
0
LAYER
2
_D-A_床面積表
70
0
62
7
6
CONTINUOUS
0
LAYER
2
_D-B_1_4表
70
0
62
7
6
CONTINUOUS
0
LAYER
2
_D-C_見付表
70
0
62
7
6
CONTINUOUS
0
LAYER
2
_D-D_
70
0
62
7
6
CONTINUOUS
0
LAYER
2
_D-E_文字
70
0
62
7
6
CONTINUOUS
0
LAYER
2
_D-F_補助線
70
0
62
9
6
CONTINUOUS
0
LAYER
2
_E-0_図面枠
70
0
62
7
6
CONTINUOUS
0
LAYER
2
_E-1_敷地凡例
70
0
62
7
6
CONTINUOUS
0
LAYER
2
_E-2_平面凡例
70
0
62
7
6
CONTINUOUS
0
LAYER
2
_E-3_立面凡例
70
0
62
7
6
CONTINUOUS
0
LAYER
2
_E-4_基礎凡例
70
0
62
7
6
CONTINUOUS
0
LAYER
2
_E-5_構造
70
0
62
7
6
CONTINUOUS
0
LAYER
2
_E-6_伏図凡例
70
0
62
7
6
CONTINUOUS
0
LAYER
2
_E-7_電気凡例
70
0
62
7
6
CONTINUOUS
0
LAYER
2
_E-8_給排水凡
70
0
62
7
6
CONTINUOUS
0
LAYER
2
_E-9_ガス
70
0
62
7
6
CONTINUOUS
0
LAYER
2
_E-A_
70
0
62
7
6
CONTINUOUS
0
LAYER
2
_E-B_
70
0
62
7
6
CONTINUOUS
0
LAYER
2
_E-C_
70
0
62
7
6
CONTINUOUS
0
LAYER
2
_E-D_
70
0
62
7
6
CONTINUOUS
0
LAYER
2
_E-E_文字
70
0
62
7
6
CONTINUOUS
0
LAYER
2
_E-F_補助線
70
0
62
9
6
CONTINUOUS
0
LAYER
2
_F-0_
70
0
62
7
6
CONTINUOUS
0
LAYER
2
_F-1_
70
0
62
7
6
CONTINUOUS
0
LAYER
2
_F-2_
70
0
62
7
6
CONTINUOUS
0
LAYER
2
_F-3_
70
0
62
7
6
CONTINUOUS
0
LAYER
2
_F-4_
70
0
62
7
6
CONTINUOUS
0
LAYER
2
_F-5_
70
0
62
7
6
CONTINUOUS
0
LAYER
2
_F-6_
70
0
62
7
6
CONTINUOUS
0
LAYER
2
_F-7_
70
0
62
7
6
CONTINUOUS
0
LAYER
2
_F-8_
70
0
62
7
6
CONTINUOUS
0
LAYER
2
_F-9_
70
0
62
7
6
CONTINUOUS
0
LAYER
2
_F-A_
70
0
62
7
6
CONTINUOUS
0
LAYER
2
_F-B_
70
0
62
7
6
CONTINUOUS
0
LAYER
2
_F-C_
70
0
62
7
6
CONTINUOUS
0
LAYER
2
_F-D_
70
0
62
7
6
CONTINUOUS
0
LAYER
2
_F-E_
70
0
62
7
6
CONTINUOUS
0
LAYER
2
_F-F_
70
0
62
7
6
CONTINUOUS
0
ENDTAB
  0
TABLE
  2
LTYPE
 70
     9
  0
LTYPE
  2
CONTINUOUS
 70
    64
  3
実線
 72
    65
 73
     0
 40
0.0
  0
LTYPE
  2
DASHED1
 70
    64
  3
--  --  --  --  --  --  --  --  
 72
    65
 73
     2
 40
2.5
 49
1.25
 49
-1.25
  0
LTYPE
  2
DASHED2
 70
    64
  3
----    ----    ----    ----    
 72
    65
 73
     2
 40
5.0
 49
2.5
 49
-2.5
  0
LTYPE
  2
DASHED3
 70
    64
  3
------  ------  ------  ------  
 72
    65
 73
     2
 40
5.0
 49
3.75
 49
-1.25
  0
LTYPE
  2
CENTER1
 70
    64
  3
----- - ----- - ----- - ----- - 
 72
    65
 73
     4
 40
10.0
 49
6.25
 49
-1.25
 49
1.25
 49
-1.25
  0
LTYPE
  2
CENTER2
 70
    64
  3
----------  --  ----------  --  
 72
    65
 73
     4
 40
20.0
 49
12.5
 49
-2.5
 49
2.5
 49
-2.5
  0
LTYPE
  2
PHANTOM1
 70
    64
  3
--- - - --- - - --- - - --- - - 
 72
    65
 73
     6
 40
10.0
 49
3.25
49
-1.25
 49
1.25
 49
-1.25
 49
1.25
 49
-1.25
  0
LTYPE
  2
PHANTOM2
 70
    64
  3
--------  -  -  --------  -  -  
 72
    65
 73
     6
 40
20.0
 49
10.0
 49
-2.5
 49
1.25
 49
-2.5
 49
1.25
 49
-2.5
  0
LTYPE
  2
DOT
 70
    64
  3
-   -   -   -   -   -   -   -   
 72
    65
 73
     2
 40
2.5
 49
0.625
 49
-1.875
  0
ENDTAB
  0
TABLE
  2
STYLE
 70
    1
  0
STYLE
  2
STANDARD
 70
    64
 40
0.0
 41
1.0
 42
0.0
 50
0.0
 71
     0
  3
TXT
  4
BIGFONT
  0
ENDTAB
0
ENDSEC
0
SECTION
2
BLOCKS
0
ENDSEC
0
SECTION
2
ENTITIES
0
LINE
8
_0-1_敷地図
6
CENTER1
62
3
10
14142.000000
20
9100.000000
30
0.000000
11
-1365.000000
21
9100.000000
31
0.000000
39
0.000000
0
LINE
8
_0-1_敷地図
6
CENTER1
62
3
10
-1365.000000
20
9100.000000
30
0.000000
11
-1365.000000
21
-3640.000000
31
0.000000
39
0.000000
0
LINE
8
_0-1_敷地図
6
CENTER1
62
3
10
-1365.000000
20
-3640.000000
30
0.000000
11
14142.000000
21
-3640.000000
31
0.000000
39
0.000000
0
LINE
8
_0-1_敷地図
6
CENTER1
62
3
10
14142.000000
20
-3640.000000
30
0.000000
11
14142.000000
21
9100.000000
31
0.000000
39
0.000000
0
LINE
8
_0-2_道路
6
CONTINUOUS
62
7
10
12322.000000
20
9100.000000
30
0.000000
11
12322.000000
21
4550.000000
31
0.000000
39
0.000000
0
LINE
8
_0-2_道路
6
CONTINUOUS
62
7
10
14105.000000
20
9100.000000
30
0.000000
11
12322.000000
21
9100.000000
31
0.000000
39
0.000000
0
LINE
8
_0-2_道路
6
CONTINUOUS
62
7
10
11375.000000
20
4550.000000
30
0.000000
11
14105.000000
21
4550.000000
31
0.000000
39
0.000000
0
LINE
8
_0-2_道路
6
CONTINUOUS
62
7
10
14105.000000
20
-3580.000000
30
0.000000
11
11375.000000
21
-3580.000000
31
0.000000
39
0.000000
0
LINE
8
_0-2_道路
6
CONTINUOUS
62
7
10
11375.000000
20
-3580.000000
30
0.000000
11
11375.000000
21
4550.000000
31
0.000000
39
0.000000
0
LINE
8
_0-2_道路
6
CONTINUOUS
62
7
10
14105.000000
20
10920.000000
30
0.000000
11
14105.000000
21
-5460.000000
31
0.000000
39
0.000000
0
LINE
8
_0-2_道路
6
CONTINUOUS
62
7
10
14105.000000
20
-5460.000000
30
0.000000
11
18200.000000
21
-5460.000000
31
0.000000
39
0.000000
0
LINE
8
_0-2_道路
6
CONTINUOUS
62
7
10
18200.000000
20
-5460.000000
30
0.000000
11
18200.000000
21
10920.000000
31
0.000000
39
0.000000
0
LINE
8
_0-2_道路
6
CONTINUOUS
62
7
10
18200.000000
20
10920.000000
30
0.000000
11
14105.000000
21
10920.000000
31
0.000000
39
0.000000
0
LINE
8
_3-1_下地線
6
DASHED1
62
7
10
7370.000000
20
7370.000000
30
0.000000
11
9190.000000
21
7370.000000
31
0.000000
39
0.000000
0
LINE
8
_3-1_下地線
6
DASHED1
62
7
10
7370.000000
20
7190.000000
30
0.000000
11
9010.000000
21
7190.000000
31
0.000000
39
0.000000
0
LINE
8
_3-1_下地線
6
DASHED1
62
7
10
9190.000000
20
7370.000000
30
0.000000
11
9190.000000
21
6460.000000
31
0.000000
39
0.000000
0
LINE
8
_3-1_下地線
6
DASHED1
62
7
10
9010.000000
20
7190.000000
30
0.000000
11
9010.000000
21
6460.000000
31
0.000000
39
0.000000
0
LINE
8
_3-C_ハッチ
6
CONTINUOUS
62
4
10
7280.000000
20
7462.000000
30
0.000000
11
7280.000000
21
7189.000000
31
0.000000
39
0.000000
0
LINE
8
_3-C_ハッチ
6
CONTINUOUS
62
4
10
9282.000000
20
7189.000000
30
0.000000
11
9282.000000
21
7462.000000
31
0.000000
39
0.000000
0
LINE
8
_3-C_ハッチ
6
CONTINUOUS
62
4
10
9282.000000
20
7462.000000
30
0.000000
11
7280.000000
21
7462.000000
31
0.000000
39
0.000000
0
LINE
8
_3-C_ハッチ
6
CONTINUOUS
62
4
10
7580.000000
20
7189.000000
30
0.000000
11
7580.000000
21
7462.000000
31
0.000000
39
0.000000
0
LINE
8
_3-C_ハッチ
6
CONTINUOUS
62
4
10
7880.000000
20
7189.000000
30
0.000000
11
7880.000000
21
7462.000000
31
0.000000
39
0.000000
0
LINE
8
_3-C_ハッチ
6
CONTINUOUS
62
4
10
8180.000000
20
7189.000000
30
0.000000
11
8180.000000
21
7462.000000
31
0.000000
39
0.000000
0
LINE
8
_3-C_ハッチ
6
CONTINUOUS
62
4
10
8480.000000
20
7189.000000
30
0.000000
11
8480.000000
21
7462.000000
31
0.000000
39
0.000000
0
LINE
8
_3-C_ハッチ
6
CONTINUOUS
62
4
10
8780.000000
20
7189.000000
30
0.000000
11
8780.000000
21
7462.000000
31
0.000000
39
0.000000
0
LINE
8
_3-C_ハッチ
6
CONTINUOUS
62
4
10
9080.000000
20
7189.000000
30
0.000000
11
9080.000000
21
7462.000000
31
0.000000
39
0.000000
0
LINE
8
_3-7_平面外部
6
CONTINUOUS
62
7
10
7280.000000
20
7462.000000
30
0.000000
11
7280.000000
21
7189.000000
31
0.000000
39
0.000000
0
LINE
8
_3-7_平面外部
6
CONTINUOUS
62
7
10
9282.000000
20
7189.000000
30
0.000000
11
9282.000000
21
7462.000000
31
0.000000
39
0.000000
0
LINE
8
_3-7_平面外部
6
CONTINUOUS
62
7
10
9282.000000
20
7462.000000
30
0.000000
11
7280.000000
21
7462.000000
31
0.000000
39
0.000000
0
LINE
8
_3-C_ハッチ
6
CONTINUOUS
62
4
10
7280.000000
20
6370.000000
30
0.000000
11
9282.000000
21
6370.000000
31
0.000000
39
0.000000
0
LINE
8
_3-C_ハッチ
6
CONTINUOUS
62
4
10
9282.000000
20
6370.000000
30
0.000000
11
9282.000000
21
7189.000000
31
0.000000
39
0.000000
0
LINE
8
_3-C_ハッチ
6
CONTINUOUS
62
4
10
9282.000000
20
7189.000000
30
0.000000
11
7280.000000
21
7189.000000
31
0.000000
39
0.000000
0
LINE
8
_3-C_ハッチ
6
CONTINUOUS
62
4
10
7280.000000
20
7189.000000
30
0.000000
11
7280.000000
21
6370.000000
31
0.000000
39
0.000000
0
LINE
8
_3-C_ハッチ
6
CONTINUOUS
62
4
10
7580.000000
20
6370.000000
30
0.000000
11
7580.000000
21
6670.000000
31
0.000000
39
0.000000
0
LINE
8
_3-C_ハッチ
6
CONTINUOUS
62
4
10
7880.000000
20
6370.000000
30
0.000000
11
7880.000000
21
6670.000000
31
0.000000
39
0.000000
0
LINE
8
_3-C_ハッチ
6
CONTINUOUS
62
4
10
8180.000000
20
6370.000000
30
0.000000
11
8180.000000
21
6670.000000
31
0.000000
39
0.000000
0
LINE
8
_3-C_ハッチ
6
CONTINUOUS
62
4
10
8480.000000
20
6370.000000
30
0.000000
11
8480.000000
21
6670.000000
31
0.000000
39
0.000000
0
LINE
8
_3-C_ハッチ
6
CONTINUOUS
62
4
10
8780.000000
20
6370.000000
30
0.000000
11
8780.000000
21
6670.000000
31
0.000000
39
0.000000
0
LINE
8
_3-C_ハッチ
6
CONTINUOUS
62
4
10
9080.000000
20
6370.000000
30
0.000000
11
9080.000000
21
6670.000000
31
0.000000
39
0.000000
0
LINE
8
_3-C_ハッチ
6
CONTINUOUS
62
4
10
7280.000000
20
6670.000000
30
0.000000
11
7580.000000
21
6670.000000
31
0.000000
39
0.000000
0
LINE
8
_3-C_ハッチ
6
CONTINUOUS
62
4
10
7580.000000
20
6670.000000
30
0.000000
11
7580.000000
21
6970.000000
31
0.000000
39
0.000000
0
LINE
8
_3-C_ハッチ
6
CONTINUOUS
62
4
10
7580.000000
20
6670.000000
30
0.000000
11
7880.000000
21
6670.000000
31
0.000000
39
0.000000
0
LINE
8
_3-C_ハッチ
6
CONTINUOUS
62
4
10
7880.000000
20
6670.000000
30
0.000000
11
7880.000000
21
6970.000000
31
0.000000
39
0.000000
0
LINE
8
_3-C_ハッチ
6
CONTINUOUS
62
4
10
7880.000000
20
6670.000000
30
0.000000
11
8180.000000
21
6670.000000
31
0.000000
39
0.000000
0
LINE
8
_3-C_ハッチ
6
CONTINUOUS
62
4
10
8180.000000
20
6670.000000
30
0.000000
11
8180.000000
21
6970.000000
31
0.000000
39
0.000000
0
LINE
8
_3-C_ハッチ
6
CONTINUOUS
62
4
10
8180.000000
20
6670.000000
30
0.000000
11
8480.000000
21
6670.000000
31
0.000000
39
0.000000
0
LINE
8
_3-C_ハッチ
6
CONTINUOUS
62
4
10
8480.000000
20
6670.000000
30
0.000000
11
8480.000000
21
6970.000000
31
0.000000
39
0.000000
0
LINE
8
_3-C_ハッチ
6
CONTINUOUS
62
4
10
8480.000000
20
6670.000000
30
0.000000
11
8780.000000
21
6670.000000
31
0.000000
39
0.000000
0
LINE
8
_3-C_ハッチ
6
CONTINUOUS
62
4
10
8780.000000
20
6670.000000
30
0.000000
11
8780.000000
21
6970.000000
31
0.000000
39
0.000000
0
LINE
8
_3-C_ハッチ
6
CONTINUOUS
62
4
10
8780.000000
20
6670.000000
30
0.000000
11
9080.000000
21
6670.000000
31
0.000000
39
0.000000
0
LINE
8
_3-C_ハッチ
6
CONTINUOUS
62
4
10
9080.000000
20
6670.000000
30
0.000000
11
9080.000000
21
6970.000000
31
0.000000
39
0.000000
0
LINE
8
_3-C_ハッチ
6
CONTINUOUS
62
4
10
9080.000000
20
6670.000000
30
0.000000
11
9282.000000
21
6670.000000
31
0.000000
39
0.000000
0
LINE
8
_3-C_ハッチ
6
CONTINUOUS
62
4
10
7280.000000
20
6970.000000
30
0.000000
11
7580.000000
21
6970.000000
31
0.000000
39
0.000000
0
LINE
8
_3-C_ハッチ
6
CONTINUOUS
62
4
10
7580.000000
20
6970.000000
30
0.000000
11
7580.000000
21
7189.000000
31
0.000000
39
0.000000
0
LINE
8
_3-C_ハッチ
6
CONTINUOUS
62
4
10
7580.000000
20
6970.000000
30
0.000000
11
7880.000000
21
6970.000000
31
0.000000
39
0.000000
0
LINE
8
_3-C_ハッチ
6
CONTINUOUS
62
4
10
7880.000000
20
6970.000000
30
0.000000
11
7880.000000
21
7189.000000
31
0.000000
39
0.000000
0
LINE
8
_3-C_ハッチ
6
CONTINUOUS
62
4
10
7880.000000
20
6970.000000
30
0.000000
11
8180.000000
21
6970.000000
31
0.000000
39
0.000000
0
LINE
8
_3-C_ハッチ
6
CONTINUOUS
62
4
10
8180.000000
20
6970.000000
30
0.000000
11
8180.000000
21
7189.000000
31
0.000000
39
0.000000
0
LINE
8
_3-C_ハッチ
6
CONTINUOUS
62
4
10
8180.000000
20
6970.000000
30
0.000000
11
8480.000000
21
6970.000000
31
0.000000
39
0.000000
0
LINE
8
_3-C_ハッチ
6
CONTINUOUS
62
4
10
8480.000000
20
6970.000000
30
0.000000
11
8480.000000
21
7189.000000
31
0.000000
39
0.000000
0
LINE
8
_3-C_ハッチ
6
CONTINUOUS
62
4
10
8480.000000
20
6970.000000
30
0.000000
11
8780.000000
21
6970.000000
31
0.000000
39
0.000000
0
LINE
8
_3-C_ハッチ
6
CONTINUOUS
62
4
10
8780.000000
20
6970.000000
30
0.000000
11
8780.000000
21
7189.000000
31
0.000000
39
0.000000
0
LINE
8
_3-C_ハッチ
6
CONTINUOUS
62
4
10
8780.000000
20
6970.000000
30
0.000000
11
9080.000000
21
6970.000000
31
0.000000
39
0.000000
0
LINE
8
_3-C_ハッチ
6
CONTINUOUS
62
4
10
9080.000000
20
6970.000000
30
0.000000
11
9080.000000
21
7189.000000
31
0.000000
39
0.000000
0
LINE
8
_3-C_ハッチ
6
CONTINUOUS
62
4
10
9080.000000
20
6970.000000
30
0.000000
11
9282.000000
21
6970.000000
31
0.000000
39
0.000000
0
LINE
8
_3-7_平面外部
6
CONTINUOUS
62
7
10
7280.000000
20
6370.000000
30
0.000000
11
9282.000000
21
6370.000000
31
0.000000
39
0.000000
0
LINE
8
_3-7_平面外部
6
CONTINUOUS
62
7
10
9282.000000
20
6370.000000
30
0.000000
11
9282.000000
21
7189.000000
31
0.000000
39
0.000000
0
LINE
8
_3-7_平面外部
6
CONTINUOUS
62
7
10
9282.000000
20
7189.000000
30
0.000000
11
7280.000000
21
7189.000000
31
0.000000
39
0.000000
0
LINE
8
_3-7_平面外部
6
CONTINUOUS
62
7
10
7280.000000
20
7189.000000
30
0.000000
11
7280.000000
21
6370.000000
31
0.000000
39
0.000000
0
LINE
8
_1-D_寸法
6
CONTINUOUS
62
7
10
10920.000000
20
3640.000000
30
0.000000
11
10920.000000
21
9100.000000
31
0.000000
39
0.000000
0
LINE
8
_1-4_屋根
6
CENTER2
62
7
10
9100.000000
20
4049.000000
30
0.000000
11
9100.000000
21
-546.000000
31
0.000000
39
0.000000
0
LINE
8
_1-4_屋根
6
CENTER2
62
7
10
9100.000000
20
-546.000000
30
0.000000
11
11193.000000
21
-546.000000
31
0.000000
39
0.000000
0
LINE
8
_1-4_屋根
6
CENTER2
62
7
10
11193.000000
20
-546.000000
30
0.000000
11
11193.000000
21
4049.000000
31
0.000000
39
0.000000
0
LINE
8
_1-4_屋根
6
CENTER2
62
7
10
11193.000000
20
1820.000000
30
0.000000
11
9100.000000
21
1820.000000
31
0.000000
39
0.000000
0
LINE
8
_1-4_屋根
6
CENTER2
62
7
10
11193.000000
20
4049.000000
30
0.000000
11
9100.000000
21
4049.000000
31
0.000000
39
0.000000
0
LINE
8
_1-4_屋根
6
CENTER2
62
7
10
9555.000000
20
5915.000000
30
0.000000
11
1365.000000
21
5915.000000
31
0.000000
39
0.000000
0
LINE
8
_1-4_屋根
6
CENTER2
62
7
10
1365.000000
20
5915.000000
30
0.000000
11
1365.000000
21
455.000000
31
0.000000
39
0.000000
0
LINE
8
_1-4_屋根
6
CENTER2
62
7
10
-455.000000
20
3185.000000
30
0.000000
11
9555.000000
21
3185.000000
31
0.000000
39
0.000000
0
LINE
8
_1-4_屋根
6
CENTER2
62
7
10
9555.000000
20
455.000000
30
0.000000
11
9555.000000
21
7735.000000
31
0.000000
39
0.000000
0
LINE
8
_1-4_屋根
6
CENTER2
62
7
10
1365.000000
20
455.000000
30
0.000000
11
9555.000000
21
455.000000
31
0.000000
39
0.000000
0
LINE
8
_1-4_屋根
6
CENTER2
62
7
10
-455.000000
20
6825.000000
30
0.000000
11
-455.000000
21
-546.000000
31
0.000000
39
0.000000
0
LINE
8
_1-4_屋根
6
CENTER2
62
7
10
1820.000000
20
-546.000000
30
0.000000
11
1820.000000
21
5460.000000
31
0.000000
39
0.000000
0
LINE
8
_1-4_屋根
6
CENTER2
62
7
10
1820.000000
20
5460.000000
30
0.000000
11
9555.000000
21
5460.000000
31
0.000000
39
0.000000
0
LINE
8
_1-4_屋根
6
CENTER2
62
7
10
9555.000000
20
7735.000000
30
0.000000
11
2275.000000
21
7735.000000
31
0.000000
39
0.000000
0
LINE
8
_1-4_屋根
6
CENTER2
62
7
10
2275.000000
20
7735.000000
30
0.000000
11
2275.000000
21
6825.000000
31
0.000000
39
0.000000
0
LINE
8
_1-4_屋根
6
CENTER2
62
7
10
2275.000000
20
6825.000000
30
0.000000
11
-455.000000
21
6825.000000
31
0.000000
39
0.000000
0
LINE
8
_1-4_屋根
6
CENTER2
62
7
10
-455.000000
20
-546.000000
30
0.000000
11
1820.000000
21
-546.000000
31
0.000000
39
0.000000
0
LINE
8
_1-4_屋根
6
CENTER2
62
7
10
9190.000000
20
-691.000000
30
0.000000
11
11193.000000
21
-691.000000
31
0.000000
39
0.000000
0
LINE
8
_1-4_屋根
6
CENTER2
62
7
10
11193.000000
20
4194.000000
30
0.000000
11
9190.000000
21
4194.000000
31
0.000000
39
0.000000
0
LINE
8
_1-4_屋根
6
CENTER2
62
7
10
9555.000000
20
7880.000000
30
0.000000
11
2275.000000
21
7880.000000
31
0.000000
39
0.000000
0
LINE
8
_1-4_屋根
6
CENTER2
62
7
10
2275.000000
20
6970.000000
30
0.000000
11
-455.000000
21
6970.000000
31
0.000000
39
0.000000
0
LINE
8
_1-4_屋根
6
CENTER2
62
7
10
-455.000000
20
-691.000000
30
0.000000
11
1730.000000
21
-691.000000
31
0.000000
39
0.000000
0
LINE
8
_1-4_屋根
6
CENTER2
62
7
10
9555.000000
20
6060.000000
30
0.000000
11
1365.000000
21
6060.000000
31
0.000000
39
0.000000
0
LINE
8
_1-4_屋根
6
CENTER2
62
7
10
1365.000000
20
310.000000
30
0.000000
11
9555.000000
21
310.000000
31
0.000000
39
0.000000
0
LINE
8
_1-4_屋根
6
CENTER2
62
7
10
9190.000000
20
-546.000000
30
0.000000
11
9190.000000
21
-691.000000
31
0.000000
39
0.000000
0
LINE
8
_1-4_屋根
6
CENTER2
62
7
10
11193.000000
20
-546.000000
30
0.000000
11
11193.000000
21
-691.000000
31
0.000000
39
0.000000
0
LINE
8
_1-4_屋根
6
CENTER2
62
7
10
11193.000000
20
4049.000000
30
0.000000
11
11193.000000
21
4194.000000
31
0.000000
39
0.000000
0
LINE
8
_1-4_屋根
6
CENTER2
62
7
10
9190.000000
20
4049.000000
30
0.000000
11
9190.000000
21
4194.000000
31
0.000000
39
0.000000
0
LINE
8
_1-4_屋根
6
CENTER2
62
7
10
9555.000000
20
7735.000000
30
0.000000
11
9555.000000
21
7880.000000
31
0.000000
39
0.000000
0
LINE
8
_1-4_屋根
6
CENTER2
62
7
10
2275.000000
20
7735.000000
30
0.000000
11
2275.000000
21
7880.000000
31
0.000000
39
0.000000
0
LINE
8
_1-4_屋根
6
CENTER2
62
7
10
2275.000000
20
6825.000000
30
0.000000
11
2275.000000
21
6970.000000
31
0.000000
39
0.000000
0
LINE
8
_1-4_屋根
6
CENTER2
62
7
10
-455.000000
20
6825.000000
30
0.000000
11
-455.000000
21
6970.000000
31
0.000000
39
0.000000
0
LINE
8
_1-4_屋根
6
CENTER2
62
7
10
-455.000000
20
-546.000000
30
0.000000
11
-455.000000
21
-691.000000
31
0.000000
39
0.000000
0
LINE
8
_1-4_屋根
6
CENTER2
62
7
10
1730.000000
20
-546.000000
30
0.000000
11
1730.000000
21
-691.000000
31
0.000000
39
0.000000
0
LINE
8
_1-4_屋根
6
CENTER2
62
7
10
9555.000000
20
5915.000000
30
0.000000
11
9555.000000
21
6060.000000
31
0.000000
39
0.000000
0
LINE
8
_1-4_屋根
6
CENTER2
62
7
10
1365.000000
20
5915.000000
30
0.000000
11
1365.000000
21
6060.000000
31
0.000000
39
0.000000
0
LINE
8
_1-4_屋根
6
CENTER2
62
7
10
1365.000000
20
455.000000
30
0.000000
11
1365.000000
21
310.000000
31
0.000000
39
0.000000
0
LINE
8
_1-4_屋根
6
CENTER2
62
7
10
9555.000000
20
455.000000
30
0.000000
11
9555.000000
21
310.000000
31
0.000000
39
0.000000
0
LINE
8
_1-6_外部要素
6
DASHED3
62
7
10
1820.000000
20
-455.000000
30
0.000000
11
9100.000000
21
-455.000000
31
0.000000
39
0.000000
0
LINE
8
_1-6_外部要素
6
DASHED3
62
7
10
9100.000000
20
-455.000000
30
0.000000
11
9100.000000
21
0.000000
31
0.000000
39
0.000000
0
LINE
8
_1-6_外部要素
6
DASHED3
62
7
10
9100.000000
20
0.000000
30
0.000000
11
1820.000000
21
0.000000
31
0.000000
39
0.000000
0
LINE
8
_1-6_外部要素
6
DASHED3
62
7
10
1820.000000
20
0.000000
30
0.000000
11
1820.000000
21
-455.000000
31
0.000000
39
0.000000
0
LINE
8
_1-1_外周1階
6
CENTER1
62
3
10
0.000000
20
0.000000
30
0.000000
11
10920.000000
21
0.000000
31
0.000000
39
0.000000
0
LINE
8
_1-1_外周1階
6
CENTER1
62
3
10
10920.000000
20
0.000000
30
0.000000
11
10920.000000
21
3640.000000
31
0.000000
39
0.000000
0
LINE
8
_1-1_外周1階
6
CENTER1
62
3
10
10920.000000
20
3640.000000
30
0.000000
11
9100.000000
21
3640.000000
31
0.000000
39
0.000000
0
LINE
8
_1-1_外周1階
6
CENTER1
62
3
10
9100.000000
20
3640.000000
30
0.000000
11
9100.000000
21
6370.000000
31
0.000000
39
0.000000
0
LINE
8
_1-1_外周1階
6
CENTER1
62
3
10
9100.000000
20
6370.000000
30
0.000000
11
7280.000000
21
6370.000000
31
0.000000
39
0.000000
0
LINE
8
_1-1_外周1階
6
CENTER1
62
3
10
7280.000000
20
6370.000000
30
0.000000
11
7280.000000
21
7280.000000
31
0.000000
39
0.000000
0
LINE
8
_1-1_外周1階
6
CENTER1
62
3
10
7280.000000
20
7280.000000
30
0.000000
11
2730.000000
21
7280.000000
31
0.000000
39
0.000000
0
LINE
8
_1-1_外周1階
6
CENTER1
62
3
10
2730.000000
20
7280.000000
30
0.000000
11
2730.000000
21
6370.000000
31
0.000000
39
0.000000
0
LINE
8
_1-1_外周1階
6
CENTER1
62
3
10
2730.000000
20
6370.000000
30
0.000000
11
0.000000
21
6370.000000
31
0.000000
39
0.000000
0
LINE
8
_1-1_外周1階
6
CENTER1
62
3
10
0.000000
20
6370.000000
30
0.000000
11
0.000000
21
0.000000
31
0.000000
39
0.000000
0
LINE
8
_1-5_外周仕上
6
CONTINUOUS
62
2
10
-90.000000
20
-90.000000
30
0.000000
11
11010.000000
21
-90.000000
31
0.000000
39
0.000000
0
LINE
8
_1-5_外周仕上
6
CONTINUOUS
62
2
10
11010.000000
20
-90.000000
30
0.000000
11
11010.000000
21
3730.000000
31
0.000000
39
0.000000
0
LINE
8
_1-5_外周仕上
6
CONTINUOUS
62
2
10
11010.000000
20
3730.000000
30
0.000000
11
9190.000000
21
3730.000000
31
0.000000
39
0.000000
0
LINE
8
_1-5_外周仕上
6
CONTINUOUS
62
2
10
9190.000000
20
3730.000000
30
0.000000
11
9190.000000
21
6460.000000
31
0.000000
39
0.000000
0
LINE
8
_1-5_外周仕上
6
CONTINUOUS
62
2
10
9190.000000
20
6460.000000
30
0.000000
11
7370.000000
21
6460.000000
31
0.000000
39
0.000000
0
LINE
8
_1-5_外周仕上
6
CONTINUOUS
62
2
10
7370.000000
20
6460.000000
30
0.000000
11
7370.000000
21
7370.000000
31
0.000000
39
0.000000
0
LINE
8
_1-5_外周仕上
6
CONTINUOUS
62
2
10
7370.000000
20
7370.000000
30
0.000000
11
2640.000000
21
7370.000000
31
0.000000
39
0.000000
0
LINE
8
_1-5_外周仕上
6
CONTINUOUS
62
2
10
2640.000000
20
7370.000000
30
0.000000
11
2640.000000
21
6460.000000
31
0.000000
39
0.000000
0
LINE
8
_1-5_外周仕上
6
CONTINUOUS
62
2
10
2640.000000
20
6460.000000
30
0.000000
11
-90.000000
21
6460.000000
31
0.000000
39
0.000000
0
LINE
8
_1-5_外周仕上
6
CONTINUOUS
62
2
10
-90.000000
20
6460.000000
30
0.000000
11
-90.000000
21
-90.000000
31
0.000000
39
0.000000
0
CIRCLE
8
_0-1_敷地図
6
CENTER1
62
3
10
14142.000000
20
9100.000000
30
0.000000
39
0.000000
40
75.000000
0
CIRCLE
8
_0-1_敷地図
6
CENTER1
62
3
10
-1365.000000
20
9100.000000
30
0.000000
39
0.000000
40
75.000000
0
CIRCLE
8
_0-1_敷地図
6
CENTER1
62
3
10
-1365.000000
20
-3640.000000
30
0.000000
39
0.000000
40
75.000000
0
CIRCLE
8
_0-1_敷地図
6
CENTER1
62
3
10
14142.000000
20
-3640.000000
30
0.000000
39
0.000000
40
75.000000
0
POINT
8
_0-1_敷地図
62
3
10
14142.000000
20
9100.000000
30
0.000000
39
0.000000
0
POINT
8
_0-1_敷地図
62
3
10
-1365.000000
20
9100.000000
30
0.000000
39
0.000000
0
POINT
8
_0-1_敷地図
62
3
10
-1365.000000
20
-3640.000000
30
0.000000
39
0.000000
0
POINT
8
_0-1_敷地図
62
3
10
14142.000000
20
-3640.000000
30
0.000000
39
0.000000
0
POINT
8
_1-D_寸法
62
7
10
10920.000000
20
3640.000000
30
0.000000
39
0.000000
0
POINT
8
_1-D_寸法
62
7
10
10920.000000
20
9100.000000
30
0.000000
39
0.000000
0
TEXT
8
_1-E_文字
62
7
39
1.000000
10
11582.259928
20
2025.000000
30
0
40
250.000000
1
-1200 
50
0.000000
7
STANDARD
0
TEXT
8
_1-E_文字
62
7
39
1.000000
10
8723.631769
20
8122.000000
30
0
40
250.000000
1
±０ 
50
0.000000
7
STANDARD
0
TEXT
8
_1-E_文字
62
7
39
1.000000
10
9542.631769
20
-1160.000000
30
0
40
250.000000
1
±０ 
50
0.000000
7
STANDARD
0
TEXT
8
_2-E_文字
62
7
39
1.000000
10
7906.000000
20
6654.500000
30
0
40
250.000000
1
ポーチ
50
0.000000
7
STANDARD
0
TEXT
8
_1-D_寸法
62
7
39
1.000000
10
10919.750000
20
6057.500000
30
0
40
250.000000
1
5,460
50
90.000000
7
STANDARD
0
ENDSEC
0
EOF
